  0
SECTION
  2
HEADER
  9
$ACADVER
  1
AC1015
  9
$ACADMAINTVER
 70
     6
  9
$DWGCODEPAGE
  3
ANSI_1254
  9
$INSBASE
 10
0.0
 20
0.0
 30
0.0
  9
$EXTMIN
 10
0.0
 20
0.0
 30
0.0
  9
$EXTMAX
 10
279.4
 20
215.9
 30
0.0
  9
$LIMMIN
 10
0.0
 20
0.0
  9
$LIMMAX
 10
279.4
 20
215.9
  9
$ORTHOMODE
 70
     0
  9
$REGENMODE
 70
     1
  9
$FILLMODE
 70
     1
  9
$QTEXTMODE
 70
     0
  9
$MIRRTEXT
 70
     1
  9
$LTSCALE
 40
1.0
  9
$ATTMODE
 70
     1
  9
$TEXTSIZE
 40
3.5
  9
$TRACEWID
 40
1.0
  9
$TEXTSTYLE
  7
Standard
  9
$CLAYER
  8
0
  9
$CELTYPE
  6
ByLayer
  9
$CECOLOR
 62
   256
  9
$CELTSCALE
 40
1.0
  9
$DISPSILH
 70
     0
  9
$DIMSCALE
 40
1.0
  9
$DIMASZ
 40
3.5
  9
$DIMEXO
 40
1.0
  9
$DIMDLI
 40
3.75
  9
$DIMRND
 40
0.0
  9
$DIMDLE
 40
0.0
  9
$DIMEXE
 40
1.0
  9
$DIMTP
 40
0.0
  9
$DIMTM
 40
0.0
  9
$DIMTXT
 40
3.5
  9
$DIMCEN
 40
2.5
  9
$DIMTSZ
 40
0.0
  9
$DIMTOL
 70
     0
  9
$DIMLIM
 70
     0
  9
$DIMTIH
 70
     1
  9
$DIMTOH
 70
     1
  9
$DIMSE1
 70
     0
  9
$DIMSE2
 70
     0
  9
$DIMTAD
 70
     1
  9
$DIMZIN
 70
     0
  9
$DIMBLK
  1

  9
$DIMASO
 70
     1
  9
$DIMSHO
 70
     1
  9
$DIMPOST
  1

  9
$DIMAPOST
  1

  9
$DIMALT
 70
     0
  9
$DIMALTD
 70
     3
  9
$DIMALTF
 40
0.0393700787
  9
$DIMLFAC
 40
1.0
  9
$DIMTOFL
 70
     1
  9
$DIMTVP
 40
0.0
  9
$DIMTIX
 70
     0
  9
$DIMSOXD
 70
     0
  9
$DIMSAH
 70
     0
  9
$DIMBLK1
  1

  9
$DIMBLK2
  1

  9
$DIMSTYLE
  2
ISO-25
  9
$DIMCLRD
 70
     0
  9
$DIMCLRE
 70
     0
  9
$DIMCLRT
 70
     0
  9
$DIMTFAC
 40
1.0
  9
$DIMGAP
 40
1.524
  9
$DIMJUST
 70
     0
  9
$DIMSD1
 70
     0
  9
$DIMSD2
 70
     0
  9
$DIMTOLJ
 70
     0
  9
$DIMTZIN
 70
     0
  9
$DIMALTZ
 70
     0
  9
$DIMALTTZ
 70
     0
  9
$DIMUPT
 70
     0
  9
$DIMDEC
 70
     2
  9
$DIMTDEC
 70
     2
  9
$DIMALTU
 70
     2
  9
$DIMALTTD
 70
     3
  9
$DIMTXSTY
  7
Standard
  9
$DIMAUNIT
 70
     0
  9
$DIMADEC
 70
     2
  9
$DIMALTRND
 40
0.0
  9
$DIMAZIN
 70
     0
  9
$DIMDSEP
 70
    44
  9
$DIMATFIT
 70
     3
  9
$DIMFRAC
 70
     0
  9
$DIMLDRBLK
  1

  9
$DIMLUNIT
 70
     2
  9
$DIMLWD
 70
    -2
  9
$DIMLWE
 70
    -2
  9
$DIMTMOVE
 70
     0
  9
$LUNITS
 70
     2
  9
$LUPREC
 70
     2
  9
$SKETCHINC
 40
1.0
  9
$FILLETRAD
 40
10.0
  9
$AUNITS
 70
     0
  9
$AUPREC
 70
     2
  9
$MENU
  1
.
  9
$ELEVATION
 40
0.0
  9
$PELEVATION
 40
0.0
  9
$THICKNESS
 40
0.0
  9
$LIMCHECK
 70
     0
  9
$CHAMFERA
 40
0.0
  9
$CHAMFERB
 40
0.0
  9
$CHAMFERC
 40
0.0
  9
$CHAMFERD
 40
0.0
  9
$SKPOLY
 70
     0
  9
$TDCREATE
 40
2459948.579410116
  9
$TDUCREATE
 40
2459948.454410116
  9
$TDUPDATE
 40
2459948.579410336
  9
$TDUUPDATE
 40
2459948.454410336
  9
$TDINDWG
 40
0.0000000116
  9
$TDUSRTIMER
 40
0.0000000116
  9
$USRTIMER
 70
     1
  9
$ANGBASE
 50
0.0
  9
$ANGDIR
 70
     0
  9
$PDMODE
 70
     0
  9
$PDSIZE
 40
-1.0
  9
$PLINEWID
 40
0.0
  9
$SPLFRAME
 70
     0
  9
$SPLINETYPE
 70
     6
  9
$SPLINESEGS
 70
     8
  9
$HANDSEED
  5
16B
  9
$SURFTAB1
 70
     6
  9
$SURFTAB2
 70
     6
  9
$SURFTYPE
 70
     6
  9
$SURFU
 70
     6
  9
$SURFV
 70
     6
  9
$UCSBASE
  2

  9
$UCSNAME
  2

  9
$UCSORG
 10
0.0
 20
0.0
 30
0.0
  9
$UCSXDIR
 10
1.0
 20
0.0
 30
0.0
  9
$UCSYDIR
 10
0.0
 20
1.0
 30
0.0
  9
$UCSORTHOREF
  2

  9
$UCSORTHOVIEW
 70
     0
  9
$UCSORGTOP
 10
0.0
 20
0.0
 30
0.0
  9
$UCSORGBOTTOM
 10
0.0
 20
0.0
 30
0.0
  9
$UCSORGLEFT
 10
0.0
 20
0.0
 30
0.0
  9
$UCSORGRIGHT
 10
0.0
 20
0.0
 30
0.0
  9
$UCSORGFRONT
 10
0.0
 20
0.0
 30
0.0
  9
$UCSORGBACK
 10
0.0
 20
0.0
 30
0.0
  9
$PUCSBASE
  2

  9
$PUCSNAME
  2

  9
$PUCSORG
 10
0.0
 20
0.0
 30
0.0
  9
$PUCSXDIR
 10
1.0
 20
0.0
 30
0.0
  9
$PUCSYDIR
 10
0.0
 20
1.0
 30
0.0
  9
$PUCSORTHOREF
  2

  9
$PUCSORTHOVIEW
 70
     0
  9
$PUCSORGTOP
 10
0.0
 20
0.0
 30
0.0
  9
$PUCSORGBOTTOM
 10
0.0
 20
0.0
 30
0.0
  9
$PUCSORGLEFT
 10
0.0
 20
0.0
 30
0.0
  9
$PUCSORGRIGHT
 10
0.0
 20
0.0
 30
0.0
  9
$PUCSORGFRONT
 10
0.0
 20
0.0
 30
0.0
  9
$PUCSORGBACK
 10
0.0
 20
0.0
 30
0.0
  9
$USERI1
 70
     0
  9
$USERI2
 70
     0
  9
$USERI3
 70
     0
  9
$USERI4
 70
     0
  9
$USERI5
 70
     0
  9
$USERR1
 40
0.0
  9
$USERR2
 40
0.0
  9
$USERR3
 40
0.0
  9
$USERR4
 40
0.0
  9
$USERR5
 40
0.0
  9
$WORLDVIEW
 70
     1
  9
$SHADEDGE
 70
     3
  9
$SHADEDIF
 70
    70
  9
$TILEMODE
 70
     1
  9
$MAXACTVP
 70
    64
  9
$PINSBASE
 10
0.0
 20
0.0
 30
0.0
  9
$PLIMCHECK
 70
     0
  9
$PEXTMIN
 10
1.0000000000E+20
 20
1.0000000000E+20
 30
1.0000000000E+20
  9
$PEXTMAX
 10
-1.0000000000E+20
 20
-1.0000000000E+20
 30
-1.0000000000E+20
  9
$PLIMMIN
 10
0.0
 20
0.0
  9
$PLIMMAX
 10
420.0
 20
297.0
  9
$UNITMODE
 70
     0
  9
$VISRETAIN
 70
     1
  9
$PLINEGEN
 70
     0
  9
$PSLTSCALE
 70
     1
  9
$TREEDEPTH
 70
  3020
  9
$CMLSTYLE
  2
Standard
  9
$CMLJUST
 70
     0
  9
$CMLSCALE
 40
20.0
  9
$PROXYGRAPHICS
 70
     1
  9
$MEASUREMENT
 70
     1
  9
$CELWEIGHT
370
    -1
  9
$ENDCAPS
280
     0
  9
$JOINSTYLE
280
     0
  9
$LWDISPLAY
290
     1
  9
$INSUNITS
 70
     4
  9
$HYPERLINKBASE
  1

  9
$STYLESHEET
  1

  9
$XEDIT
290
     1
  9
$CEPSNTYPE
380
     0
  9
$PSTYLEMODE
290
     1
  9
$FINGERPRINTGUID
  2
{289009ba-43e8-48bc-a336-dfe43a6c033d}
  9
$VERSIONGUID
  2
{FAEB1C32-E019-11D5-929B-00C0DF256EC4}
  9
$EXTNAMES
290
     1
  9
$PSVPSCALE
 40
0.0
  9
$OLESTARTUP
290
     0
  0
ENDSEC
  0
SECTION
  2
CLASSES
  0
CLASS
  1
ACDBDICTIONARYWDFLT
  2
AcDbDictionaryWithDefault
  3
ObjectDBX Classes
 90
        0
280
     0
281
     0
  0
CLASS
  1
VISUALSTYLE
  2
AcDbVisualStyle
  3
ObjectDBX Classes
 90
     4095
280
     0
281
     0
  0
CLASS
  1
MATERIAL
  2
AcDbMaterial
  3
ObjectDBX Classes
 90
     1153
280
     0
281
     0
  0
CLASS
  1
SCALE
  2
AcDbScale
  3
ObjectDBX Classes
 90
     1153
280
     0
281
     0
  0
CLASS
  1
TABLESTYLE
  2
AcDbTableStyle
  3
ObjectDBX Classes
 90
     4095
280
     0
281
     0
  0
CLASS
  1
MLEADERSTYLE
  2
AcDbMLeaderStyle
  3
ACDB_MLEADERSTYLE_CLASS
 90
     4095
280
     0
281
     0
  0
CLASS
  1
SUN
  2
AcDbSun
  3
SCENEOE
 90
     1153
280
     0
281
     0
  0
CLASS
  1
ACDBPLACEHOLDER
  2
AcDbPlaceHolder
  3
ObjectDBX Classes
 90
        0
280
     0
281
     0
  0
CLASS
  1
LAYOUT
  2
AcDbLayout
  3
ObjectDBX Classes
 90
        0
280
     0
281
     0
  0
ENDSEC
  0
SECTION
  2
TABLES
  0
TABLE
  2
VPORT
  5
8
330
0
100
AcDbSymbolTable
 70
     1
  0
VPORT
  5
29
330
8
100
AcDbSymbolTableRecord
100
AcDbViewportTableRecord
  2
*Active
 70
     0
 10
0.0
 20
0.0
 11
1.0
 21
1.0
 12
139.7
 22
107.95
 13
0.0
 23
0.0
 14
10.0
 24
10.0
 15
10.0
 25
10.0
 16
0.0
 26
0.0
 36
1.0
 17
0.0
 27
0.0
 37
0.0
 40
215.9
 41
1.2941176471
 42
50.0
 43
0.0
 44
0.0
 50
0.0
 51
0.0
 71
     0
 72
  2000
 73
     1
 74
     3
 75
     0
 76
     0
 77
     0
 78
     0
281
     0
 65
     1
110
0.0
120
0.0
130
0.0
111
1.0
121
0.0
131
0.0
112
0.0
122
1.0
132
0.0
 79
     0
146
0.0
  0
ENDTAB
  0
TABLE
  2
LTYPE
  5
5
330
0
100
AcDbSymbolTable
 70
     6
  0
LTYPE
  5
14
330
5
100
AcDbSymbolTableRecord
100
AcDbLinetypeTableRecord
  2
ByBlock
 70
     0
  3

 72
    65
 73
     0
 40
0.0
  0
LTYPE
  5
15
330
5
100
AcDbSymbolTableRecord
100
AcDbLinetypeTableRecord
  2
ByLayer
 70
     0
  3

 72
    65
 73
     0
 40
0.0
  0
LTYPE
  5
16
330
5
100
AcDbSymbolTableRecord
100
AcDbLinetypeTableRecord
  2
Continuous
 70
     0
  3
Solid line
 72
    65
 73
     0
 40
0.0
  0
LTYPE
  5
6E
330
5
100
AcDbSymbolTableRecord
100
AcDbLinetypeTableRecord
  2
HIDDEN
 70
     0
  3
Hidden __ __ __ __ __ __ __ __ __ __ __ __ __ __
 72
    65
 73
     2
 40
1.905
 49
1.27
 74
     0
 49
-0.635
 74
     0
  0
LTYPE
  5
6F
330
5
100
AcDbSymbolTableRecord
100
AcDbLinetypeTableRecord
  2
PHANTOM
 70
     0
  3
Phantom ______  __  __  ______  __  __  ______
 72
    65
 73
     6
 40
12.7
 49
6.35
 74
     0
 49
-1.27
 74
     0
 49
1.27
 74
     0
 49
-1.27
 74
     0
 49
1.27
 74
     0
 49
-1.27
 74
     0
  0
LTYPE
  5
70
330
5
100
AcDbSymbolTableRecord
100
AcDbLinetypeTableRecord
  2
CENTER
 70
     0
  3
Center ____ _ ____ _ ____ _ ____ _ ____ _ ____
 72
    65
 73
     4
 40
10.16
 49
6.35
 74
     0
 49
-1.27
 74
     0
 49
1.27
 74
     0
 49
-1.27
 74
     0
  0
LTYPE
  5
71
330
5
100
AcDbSymbolTableRecord
100
AcDbLinetypeTableRecord
  2
CENTERX2
 70
     0
  3
Center (2x) ________  __  ________  __  _____
 72
    65
 73
     4
 40
20.32
 49
12.7
 74
     0
 49
-2.54
 74
     0
 49
2.54
 74
     0
 49
-2.54
 74
     0
  0
LTYPE
  5
72
330
5
100
AcDbSymbolTableRecord
100
AcDbLinetypeTableRecord
  2
DOT2
 70
     0
  3
Dot (.5x) ........................................
 72
    65
 73
     2
 40
0.635
 49
0.0
 74
     0
 49
-0.635
 74
     0
  0
ENDTAB
  0
TABLE
  2
LAYER
  5
2
330
0
100
AcDbSymbolTable
 70
    17
  0
LAYER
  5
10
330
2
100
AcDbSymbolTableRecord
100
AcDbLayerTableRecord
  2
0
 70
     0
 62
     7
  6
Continuous
370
    -3
390
F
  0
LAYER
  5
73
330
2
100
AcDbSymbolTableRecord
100
AcDbLayerTableRecord
  2
FORMAT
 70
     0
 62
     7
  6
Continuous
370
    -3
390
F
  0
LAYER
  5
74
330
2
100
AcDbSymbolTableRecord
100
AcDbLayerTableRecord
  2
YARDIMCI_GEOMETRI
 70
     0
 62
    -6
  6
Continuous
290
     0
370
    -3
390
F
  0
LAYER
  5
75
330
2
100
AcDbSymbolTableRecord
100
AcDbLayerTableRecord
  2
SAYFA_CERCEVESI
 70
     0
 62
     7
  6
Continuous
370
    25
390
F
  0
LAYER
  5
76
330
2
100
AcDbSymbolTableRecord
100
AcDbLayerTableRecord
  2
ANTET
 70
     0
 62
     7
  6
Continuous
370
    -3
390
F
  0
LAYER
  5
77
330
2
100
AcDbSymbolTableRecord
100
AcDbLayerTableRecord
  2
OLCU
 70
     0
 62
   150
  6
Continuous
370
    -3
390
F
  0
LAYER
  5
78
330
2
100
AcDbSymbolTableRecord
100
AcDbLayerTableRecord
  2
METIN
 70
     0
 62
    96
  6
Continuous
370
    -3
390
F
  0
LAYER
  5
79
330
2
100
AcDbSymbolTableRecord
100
AcDbLayerTableRecord
  2
BALON
 70
     0
 62
     5
  6
Continuous
370
    -3
390
F
  0
LAYER
  5
7A
330
2
100
AcDbSymbolTableRecord
100
AcDbLayerTableRecord
  2
VURGU
 70
     0
 62
     7
  6
Continuous
370
    -3
390
F
  0
LAYER
  5
7B
330
2
100
AcDbSymbolTableRecord
100
AcDbLayerTableRecord
  2
SILIK
 70
     0
 62
     7
  6
Continuous
370
    -3
390
F
  0
LAYER
  5
7C
330
2
100
AcDbSymbolTableRecord
100
AcDbLayerTableRecord
  2
MODEL
 70
     0
 62
     7
  6
Continuous
370
    -3
390
F
  0
LAYER
  5
7D
330
2
100
AcDbSymbolTableRecord
100
AcDbLayerTableRecord
  2
DETAYLANDıRMA
 70
     0
 62
   190
  6
Continuous
370
    -3
390
F
  0
LAYER
  5
7E
330
2
100
AcDbSymbolTableRecord
100
AcDbLayerTableRecord
  2
TOLERANS
 70
     0
 62
   230
  6
Continuous
370
    -3
390
F
  0
LAYER
  5
7F
330
2
100
AcDbSymbolTableRecord
100
AcDbLayerTableRecord
  2
MERKEZ_CIZGILERI
 70
     0
 62
    30
  6
Continuous
370
    -3
390
F
  0
LAYER
  5
80
330
2
100
AcDbSymbolTableRecord
100
AcDbLayerTableRecord
  2
KESIT-DETAY_CIZGILERI
 70
     0
 62
     7
  6
Continuous
370
    -3
390
F
  0
LAYER
  5
81
330
2
100
AcDbSymbolTableRecord
100
AcDbLayerTableRecord
  2
\U+041E\U+0421\U+0415\U+0412\U+042B\U+0415
 70
     0
 62
     7
  6
Continuous
370
    -3
390
F
  0
LAYER
  5
82
330
2
100
AcDbSymbolTableRecord
100
AcDbLayerTableRecord
  2
\U+0412\U+041E\U+0414\U+042F\U+041D\U+042B\U+0415_\U+0417\U+041D\U+0410\U+041A\U+0418
 70
     0
 62
    11
  6
Continuous
370
    -3
390
F
  0
ENDTAB
  0
TABLE
  2
STYLE
  5
3
330
0
100
AcDbSymbolTable
 70
     1
  0
STYLE
  5
11
330
3
100
AcDbSymbolTableRecord
100
AcDbTextStyleTableRecord
  2
Standard
 70
     0
 40
0.0
 41
1.0
 50
0.0
 71
     0
 42
3.5
  3
txt
  4

  0
ENDTAB
  0
TABLE
  2
VIEW
  5
6
330
0
100
AcDbSymbolTable
 70
     0
  0
ENDTAB
  0
TABLE
  2
UCS
  5
7
330
0
100
AcDbSymbolTable
 70
     0
  0
ENDTAB
  0
TABLE
  2
APPID
  5
9
330
0
100
AcDbSymbolTable
 70
     1
  0
APPID
  5
12
330
9
100
AcDbSymbolTableRecord
100
AcDbRegAppTableRecord
  2
ACAD
 70
     0
  0
ENDTAB
  0
TABLE
  2
DIMSTYLE
  5
A
330
0
100
AcDbSymbolTable
 70
     1
100
AcDbDimStyleTable
  0
DIMSTYLE
105
27
330
A
100
AcDbSymbolTableRecord
100
AcDbDimStyleTableRecord
  2
ISO-25
 70
     0
 41
2.5
 42
0.625
 43
3.75
 44
1.25
 73
     0
 74
     0
 77
     1
 78
     8
140
2.5
141
2.5
143
0.0393700787
147
0.625
171
     3
172
     1
178
     0
271
     2
272
     2
274
     3
278
    44
283
     0
284
     8
340
11
  0
ENDTAB
  0
TABLE
  2
BLOCK_RECORD
  5
1
330
0
100
AcDbSymbolTable
 70
     2
  0
BLOCK_RECORD
  5
1F
330
1
100
AcDbSymbolTableRecord
100
AcDbBlockTableRecord
  2
*Model_Space
340
22
  0
BLOCK_RECORD
  5
1B
330
1
100
AcDbSymbolTableRecord
100
AcDbBlockTableRecord
  2
*Paper_Space
340
1E
  0
BLOCK_RECORD
  5
23
330
1
100
AcDbSymbolTableRecord
100
AcDbBlockTableRecord
  2
*Paper_Space0
340
26
  0
BLOCK_RECORD
  5
8E
330
1
100
AcDbSymbolTableRecord
100
AcDbBlockTableRecord
  2
SW_CENTERMARKSYMBOL_0
340
0
102
{BLKREFS
331
99
102
}
  0
ENDTAB
  0
ENDSEC
  0
SECTION
  2
BLOCKS
  0
BLOCK
  5
20
330
1F
100
AcDbEntity
  8
0
100
AcDbBlockBegin
  2
*Model_Space
 70
     0
 10
0.0
 20
0.0
 30
0.0
  3
*Model_Space
  1

  0
ENDBLK
  5
21
330
1F
100
AcDbEntity
  8
0
100
AcDbBlockEnd
  0
BLOCK
  5
1C
330
1B
100
AcDbEntity
 67
     1
  8
0
100
AcDbBlockBegin
  2
*Paper_Space
 70
     0
 10
0.0
 20
0.0
 30
0.0
  3
*Paper_Space
  1

  0
ENDBLK
  5
1D
330
1B
100
AcDbEntity
 67
     1
  8
0
100
AcDbBlockEnd
  0
BLOCK
  5
24
330
23
100
AcDbEntity
  8
0
100
AcDbBlockBegin
  2
*Paper_Space0
 70
     0
 10
0.0
 20
0.0
 30
0.0
  3
*Paper_Space0
  1

  0
ENDBLK
  5
25
330
23
100
AcDbEntity
  8
0
100
AcDbBlockEnd
  0
BLOCK
  5
8F
330
8E
100
AcDbEntity
  8
0
100
AcDbBlockBegin
  2
SW_CENTERMARKSYMBOL_0
 70
     0
 10
0.0
 20
0.0
 30
0.0
  3
SW_CENTERMARKSYMBOL_0
  1

  0
LINE
  5
91
330
8E
100
AcDbEntity
  8
FORMAT
 62
     0
100
AcDbLine
 10
0.0
 20
0.0
 30
0.0
 11
0.0
 21
2.5
 31
0.0
  0
LINE
  5
92
330
8E
100
AcDbEntity
  8
FORMAT
 62
     0
100
AcDbLine
 10
0.0
 20
0.0
 30
0.0
 11
-2.5
 21
0.0
 31
0.0
  0
LINE
  5
93
330
8E
100
AcDbEntity
  8
FORMAT
 62
     0
100
AcDbLine
 10
0.0
 20
0.0
 30
0.0
 11
0.0
 21
-2.5
 31
0.0
  0
LINE
  5
94
330
8E
100
AcDbEntity
  8
FORMAT
 62
     0
100
AcDbLine
 10
0.0
 20
0.0
 30
0.0
 11
2.5
 21
0.0
 31
0.0
  0
LINE
  5
95
330
8E
100
AcDbEntity
  8
FORMAT
 62
     0
100
AcDbLine
 10
0.0
 20
5.0
 30
0.0
 11
0.0
 21
34.0
 31
0.0
  0
LINE
  5
96
330
8E
100
AcDbEntity
  8
FORMAT
 62
     0
100
AcDbLine
 10
-5.0
 20
0.0
 30
0.0
 11
-34.0
 21
0.0
 31
0.0
  0
LINE
  5
97
330
8E
100
AcDbEntity
  8
FORMAT
 62
     0
100
AcDbLine
 10
0.0
 20
-5.0
 30
0.0
 11
0.0
 21
-34.0
 31
0.0
  0
LINE
  5
98
330
8E
100
AcDbEntity
  8
FORMAT
 62
     0
100
AcDbLine
 10
5.0
 20
0.0
 30
0.0
 11
34.0
 21
0.0
 31
0.0
  0
ENDBLK
  5
90
330
8E
100
AcDbEntity
  8
0
100
AcDbBlockEnd
  0
ENDSEC
  0
SECTION
  2
ENTITIES
  0
CIRCLE
  5
83
330
1F
100
AcDbEntity
  8
0
  6
Continuous
 62
     7
370
    25
100
AcDbCircle
 10
139.8323425481
 20
108.7440552885
 30
0.0
 40
25.7
  0
CIRCLE
  5
84
330
1F
100
AcDbEntity
  8
0
  6
Continuous
 62
     7
370
    25
100
AcDbCircle
 10
139.8323425481
 20
108.7440552885
 30
0.0
 40
31.50000000000001
  0
CIRCLE
  5
85
330
1F
100
AcDbEntity
  8
0
  6
Continuous
 62
     7
370
    25
100
AcDbCircle
 10
139.8323425481
 20
108.7440552885
 30
0.0
 40
33.50000000000001
  0
CIRCLE
  5
86
330
1F
100
AcDbEntity
  8
0
  6
Continuous
 62
     7
370
    25
100
AcDbCircle
 10
139.8323425481
 20
108.7440552885
 30
0.0
 40
34.00000000000001
  0
CIRCLE
  5
87
330
1F
100
AcDbEntity
  8
0
  6
Continuous
 62
     7
370
    25
100
AcDbCircle
 10
139.8323425481
 20
108.7440552885
 30
0.0
 40
23.25000000000001
  0
LINE
  5
88
330
1F
100
AcDbEntity
  8
0
  6
Continuous
 62
     7
370
    25
100
AcDbLine
 10
103.8323425481
 20
129.5286649793
 30
0.0
 11
103.8323425481
 21
87.9594455976
 31
0.0
  0
LINE
  5
89
330
1F
100
AcDbEntity
  8
0
  6
Continuous
 62
     7
370
    25
100
AcDbLine
 10
139.8323425481
 20
150.3132746701
 30
0.0
 11
103.8323425481
 21
129.5286649793
 31
0.0
  0
LINE
  5
8A
330
1F
100
AcDbEntity
  8
0
  6
Continuous
 62
     7
370
    25
100
AcDbLine
 10
175.8323425481
 20
87.9594455976
 30
0.0
 11
175.8323425481
 21
129.5286649793
 31
0.0
  0
LINE
  5
8B
330
1F
100
AcDbEntity
  8
0
  6
Continuous
 62
     7
370
    25
100
AcDbLine
 10
175.8323425481
 20
129.5286649793
 30
0.0
 11
139.8323425481
 21
150.3132746701
 31
0.0
  0
LINE
  5
8C
330
1F
100
AcDbEntity
  8
0
  6
Continuous
 62
     7
370
    25
100
AcDbLine
 10
139.8323425481
 20
67.1748359068
 30
0.0
 11
175.8323425481
 21
87.9594455976
 31
0.0
  0
LINE
  5
8D
330
1F
100
AcDbEntity
  8
0
  6
Continuous
 62
     7
370
    25
100
AcDbLine
 10
103.8323425481
 20
87.9594455976
 30
0.0
 11
139.8323425481
 21
67.1748359068
 31
0.0
  0
INSERT
  5
99
330
1F
100
AcDbEntity
  8
FORMAT
 62
     7
100
AcDbBlockReference
  2
SW_CENTERMARKSYMBOL_0
 10
139.8323425481
 20
108.7440552885
 30
0.0
  0
LINE
  5
9A
330
1F
100
AcDbEntity
  8
0
  6
Continuous
 62
     7
370
    25
100
AcDbLine
 10
173.8323425481
 20
237.0303844524
 30
0.0
 11
173.8323425481
 21
264.5303844524
 31
0.0
  0
LINE
  5
9B
330
1F
100
AcDbEntity
  8
0
  6
Continuous
 62
     7
370
    25
100
AcDbLine
 10
105.8323425481
 20
264.5303844524
 30
0.0
 11
105.8323425481
 21
237.0303844524
 31
0.0
  0
ARC
  5
9C
330
1F
100
AcDbEntity
  8
0
  6
Continuous
 62
     7
370
    25
100
AcDbCircle
 10
173.3323425481
 20
264.5303844524
 30
0.0
 40
0.5
100
AcDbArc
 50
0.0
 51
90.0
  0
ARC
  5
9D
330
1F
100
AcDbEntity
  8
0
  6
Continuous
 62
     7
370
    25
100
AcDbCircle
 10
106.3323425481
 20
264.5303844524
 30
0.0
 40
0.5
100
AcDbArc
 50
90.0
 51
180.0
  0
LINE
  5
9E
330
1F
100
AcDbEntity
  8
0
  6
Continuous
 62
     7
370
    25
100
AcDbLine
 10
171.3323425481
 20
265.0303844524
 30
0.0
 11
171.3323425481
 21
327.5303844524
 31
0.0
  0
LINE
  5
9F
330
1F
100
AcDbEntity
  8
0
  6
Continuous
 62
     7
370
    25
100
AcDbLine
 10
108.3323425481
 20
327.5303844524
 30
0.0
 11
108.3323425481
 21
265.0303844524
 31
0.0
  0
LINE
  5
A0
330
1F
100
AcDbEntity
  8
0
  6
Continuous
 62
     7
370
    25
100
AcDbLine
 10
110.0273425481
 20
203.5303844524
 30
0.0
 11
111.7593933556
 21
202.5303844524
 31
0.0
  0
LINE
  5
A1
330
1F
100
AcDbEntity
  8
0
  6
Continuous
 62
     7
370
    25
100
AcDbLine
 10
167.9052917405
 20
202.5303844524
 30
0.0
 11
169.6373425481
 21
203.5303844524
 31
0.0
  0
LINE
  5
A2
330
1F
100
AcDbEntity
  8
0
  6
Continuous
 62
     7
370
    25
100
AcDbLine
 10
169.6373425481
 20
203.5303844524
 30
0.0
 11
167.9052917405
 21
204.5303844524
 31
0.0
  0
LINE
  5
A3
330
1F
100
AcDbEntity
  8
0
  6
Continuous
 62
     7
370
    25
100
AcDbLine
 10
111.7593933556
 20
204.5303844524
 30
0.0
 11
110.0273425481
 21
203.5303844524
 31
0.0
  0
LINE
  5
A4
330
1F
100
AcDbEntity
  8
0
  6
Continuous
 62
     7
370
    25
100
AcDbLine
 10
110.0273425481
 20
205.5303844524
 30
0.0
 11
111.7593933556
 21
204.5303844524
 31
0.0
  0
LINE
  5
A5
330
1F
100
AcDbEntity
  8
0
  6
Continuous
 62
     7
370
    25
100
AcDbLine
 10
167.9052917405
 20
204.5303844524
 30
0.0
 11
169.6373425481
 21
205.5303844524
 31
0.0
  0
LINE
  5
A6
330
1F
100
AcDbEntity
  8
0
  6
Continuous
 62
     7
370
    25
100
AcDbLine
 10
169.6373425481
 20
205.5303844524
 30
0.0
 11
167.9052917405
 21
206.5303844524
 31
0.0
  0
LINE
  5
A7
330
1F
100
AcDbEntity
  8
0
  6
Continuous
 62
     7
370
    25
100
AcDbLine
 10
111.7593933556
 20
206.5303844524
 30
0.0
 11
110.0273425481
 21
205.5303844524
 31
0.0
  0
LINE
  5
A8
330
1F
100
AcDbEntity
  8
0
  6
Continuous
 62
     7
370
    25
100
AcDbLine
 10
110.0273425481
 20
207.5303844524
 30
0.0
 11
111.7593933556
 21
206.5303844524
 31
0.0
  0
LINE
  5
A9
330
1F
100
AcDbEntity
  8
0
  6
Continuous
 62
     7
370
    25
100
AcDbLine
 10
167.9052917405
 20
206.5303844524
 30
0.0
 11
169.6373425481
 21
207.5303844524
 31
0.0
  0
LINE
  5
AA
330
1F
100
AcDbEntity
  8
0
  6
Continuous
 62
     7
370
    25
100
AcDbLine
 10
169.6373425481
 20
207.5303844524
 30
0.0
 11
167.9052917405
 21
208.5303844524
 31
0.0
  0
LINE
  5
AB
330
1F
100
AcDbEntity
  8
0
  6
Continuous
 62
     7
370
    25
100
AcDbLine
 10
111.7593933556
 20
208.5303844524
 30
0.0
 11
110.0273425481
 21
207.5303844524
 31
0.0
  0
LINE
  5
AC
330
1F
100
AcDbEntity
  8
0
  6
Continuous
 62
     7
370
    25
100
AcDbLine
 10
110.0273425481
 20
209.5303844524
 30
0.0
 11
111.7593933556
 21
208.5303844524
 31
0.0
  0
LINE
  5
AD
330
1F
100
AcDbEntity
  8
0
  6
Continuous
 62
     7
370
    25
100
AcDbLine
 10
167.9052917405
 20
208.5303844524
 30
0.0
 11
169.6373425481
 21
209.5303844524
 31
0.0
  0
LINE
  5
AE
330
1F
100
AcDbEntity
  8
0
  6
Continuous
 62
     7
370
    25
100
AcDbLine
 10
169.6373425481
 20
209.5303844524
 30
0.0
 11
169.6373425481
 21
225.0303844524
 31
0.0
  0
LINE
  5
AF
330
1F
100
AcDbEntity
  8
0
  6
Continuous
 62
     7
370
    25
100
AcDbLine
 10
110.0273425481
 20
225.0303844524
 30
0.0
 11
110.0273425481
 21
209.5303844524
 31
0.0
  0
LINE
  5
B0
330
1F
100
AcDbEntity
  8
0
  6
Continuous
 62
     7
370
    25
100
AcDbLine
 10
139.8323425481
 20
237.0303844524
 30
0.0
 11
139.8323425481
 21
225.0303844524
 31
0.0
  0
LINE
  5
B1
330
1F
100
AcDbEntity
  8
0
  6
Continuous
 62
     7
370
    25
100
AcDbLine
 10
139.8323425481
 20
237.0303844524
 30
0.0
 11
175.8323425481
 21
237.0303844524
 31
0.0
  0
LINE
  5
B2
330
1F
100
AcDbEntity
  8
0
  6
Continuous
 62
     7
370
    25
100
AcDbLine
 10
175.8323425481
 20
237.0303844524
 30
0.0
 11
175.8323425481
 21
225.0303844524
 31
0.0
  0
LINE
  5
B3
330
1F
100
AcDbEntity
  8
0
  6
Continuous
 62
     7
370
    25
100
AcDbLine
 10
139.8323425481
 20
225.0303844524
 30
0.0
 11
175.8323425481
 21
225.0303844524
 31
0.0
  0
LINE
  5
B4
330
1F
100
AcDbEntity
  8
0
  6
Continuous
 62
     7
370
    25
100
AcDbLine
 10
103.8323425481
 20
237.0303844524
 30
0.0
 11
103.8323425481
 21
225.0303844524
 31
0.0
  0
LINE
  5
B5
330
1F
100
AcDbEntity
  8
0
  6
Continuous
 62
     7
370
    25
100
AcDbLine
 10
103.8323425481
 20
237.0303844524
 30
0.0
 11
139.8323425481
 21
237.0303844524
 31
0.0
  0
LINE
  5
B6
330
1F
100
AcDbEntity
  8
0
  6
Continuous
 62
     7
370
    25
100
AcDbLine
 10
103.8323425481
 20
225.0303844524
 30
0.0
 11
139.8323425481
 21
225.0303844524
 31
0.0
  0
LINE
  5
B7
330
1F
100
AcDbEntity
  8
0
  6
Continuous
 62
     7
370
    25
100
AcDbLine
 10
173.3323425478
 20
265.0303844524
 30
0.0
 11
106.3323425481
 21
265.0303844524
 31
0.0
  0
LINE
  5
B8
330
1F
100
AcDbEntity
  8
0
  6
Continuous
 62
     7
370
    25
100
AcDbLine
 10
171.3323425481
 20
327.5303844524
 30
0.0
 11
108.3323425481
 21
327.5303844524
 31
0.0
  0
LINE
  5
B9
330
1F
100
AcDbEntity
  8
0
  6
Continuous
 62
     7
370
    25
100
AcDbLine
 10
169.6373425481
 20
203.5303844524
 30
0.0
 11
110.0273425481
 21
203.5303844524
 31
0.0
  0
LINE
  5
BA
330
1F
100
AcDbEntity
  8
0
  6
Continuous
 62
     7
370
    25
100
AcDbLine
 10
167.9052917405
 20
202.5303844524
 30
0.0
 11
111.7593933556
 21
202.5303844524
 31
0.0
  0
LINE
  5
BB
330
1F
100
AcDbEntity
  8
0
  6
Continuous
 62
     7
370
    25
100
AcDbLine
 10
167.9052917405
 20
204.5303844524
 30
0.0
 11
111.7593933556
 21
204.5303844524
 31
0.0
  0
LINE
  5
BC
330
1F
100
AcDbEntity
  8
0
  6
Continuous
 62
     7
370
    25
100
AcDbLine
 10
169.6373425481
 20
205.5303844524
 30
0.0
 11
110.0273425481
 21
205.5303844524
 31
0.0
  0
LINE
  5
BD
330
1F
100
AcDbEntity
  8
0
  6
Continuous
 62
     7
370
    25
100
AcDbLine
 10
167.9052917405
 20
206.5303844524
 30
0.0
 11
111.7593933556
 21
206.5303844524
 31
0.0
  0
LINE
  5
BE
330
1F
100
AcDbEntity
  8
0
  6
Continuous
 62
     7
370
    25
100
AcDbLine
 10
169.6373425481
 20
207.5303844524
 30
0.0
 11
110.0273425481
 21
207.5303844524
 31
0.0
  0
LINE
  5
BF
330
1F
100
AcDbEntity
  8
0
  6
Continuous
 62
     7
370
    25
100
AcDbLine
 10
167.9052917405
 20
208.5303844524
 30
0.0
 11
111.7593933556
 21
208.5303844524
 31
0.0
  0
LINE
  5
C0
330
1F
100
AcDbEntity
  8
0
  6
Continuous
 62
     7
370
    25
100
AcDbLine
 10
169.6373425481
 20
209.5303844524
 30
0.0
 11
110.0273425481
 21
209.5303844524
 31
0.0
  0
LINE
  5
C1
330
1F
100
AcDbEntity
  8
0
  6
Continuous
 62
     1
370
    25
100
AcDbLine
 10
173.8323425481
 20
264.5303844524
 30
0.0
 11
105.8323425481
 21
264.5303844524
 31
0.0
  0
LINE
  5
C2
330
1F
100
AcDbEntity
  8
0
  6
Continuous
 62
     7
370
    25
100
AcDbLine
 10
266.1882178149
 20
74.7440552885
 30
0.0
 11
293.6882178149
 21
74.7440552885
 31
0.0
  0
LINE
  5
C3
330
1F
100
AcDbEntity
  8
0
  6
Continuous
 62
     7
370
    25
100
AcDbLine
 10
293.6882178149
 20
142.7440552885
 30
0.0
 11
266.1882178149
 21
142.7440552885
 31
0.0
  0
ARC
  5
C4
330
1F
100
AcDbEntity
  8
0
  6
Continuous
 62
     7
370
    25
100
AcDbCircle
 10
293.6882178149
 20
75.2440552885
 30
0.0
 40
0.5
100
AcDbArc
 50
270.0
 51
0.0
  0
ARC
  5
C5
330
1F
100
AcDbEntity
  8
0
  6
Continuous
 62
     7
370
    25
100
AcDbCircle
 10
293.6882178149
 20
142.2440552885
 30
0.0
 40
0.5
100
AcDbArc
 50
0.0
 51
90.0
  0
LINE
  5
C6
330
1F
100
AcDbEntity
  8
0
  6
Continuous
 62
     7
370
    25
100
AcDbLine
 10
294.1882178149
 20
77.2440552885
 30
0.0
 11
356.6882178149
 21
77.2440552885
 31
0.0
  0
LINE
  5
C7
330
1F
100
AcDbEntity
  8
0
  6
Continuous
 62
     7
370
    25
100
AcDbLine
 10
356.6882178149
 20
140.2440552885
 30
0.0
 11
294.1882178149
 21
140.2440552885
 31
0.0
  0
LINE
  5
C8
330
1F
100
AcDbEntity
  8
0
  6
Continuous
 62
     7
370
    25
100
AcDbLine
 10
232.6882178149
 20
138.5490552885
 30
0.0
 11
231.6882178149
 21
136.8170044809
 31
0.0
  0
LINE
  5
C9
330
1F
100
AcDbEntity
  8
0
  6
Continuous
 62
     7
370
    25
100
AcDbLine
 10
231.6882178149
 20
80.671106096
 30
0.0
 11
232.6882178149
 21
78.9390552885
 31
0.0
  0
LINE
  5
CA
330
1F
100
AcDbEntity
  8
0
  6
Continuous
 62
     7
370
    25
100
AcDbLine
 10
232.6882178149
 20
78.9390552885
 30
0.0
 11
233.6882178149
 21
80.671106096
 31
0.0
  0
LINE
  5
CB
330
1F
100
AcDbEntity
  8
0
  6
Continuous
 62
     7
370
    25
100
AcDbLine
 10
233.6882178149
 20
136.8170044809
 30
0.0
 11
232.6882178149
 21
138.5490552885
 31
0.0
  0
LINE
  5
CC
330
1F
100
AcDbEntity
  8
0
  6
Continuous
 62
     7
370
    25
100
AcDbLine
 10
234.6882178149
 20
138.5490552885
 30
0.0
 11
233.6882178149
 21
136.8170044809
 31
0.0
  0
LINE
  5
CD
330
1F
100
AcDbEntity
  8
0
  6
Continuous
 62
     7
370
    25
100
AcDbLine
 10
233.6882178149
 20
80.671106096
 30
0.0
 11
234.6882178149
 21
78.9390552885
 31
0.0
  0
LINE
  5
CE
330
1F
100
AcDbEntity
  8
0
  6
Continuous
 62
     7
370
    25
100
AcDbLine
 10
234.6882178149
 20
78.9390552885
 30
0.0
 11
235.6882178149
 21
80.671106096
 31
0.0
  0
LINE
  5
CF
330
1F
100
AcDbEntity
  8
0
  6
Continuous
 62
     7
370
    25
100
AcDbLine
 10
235.6882178149
 20
136.8170044809
 30
0.0
 11
234.6882178149
 21
138.5490552885
 31
0.0
  0
LINE
  5
D0
330
1F
100
AcDbEntity
  8
0
  6
Continuous
 62
     7
370
    25
100
AcDbLine
 10
236.6882178149
 20
138.5490552885
 30
0.0
 11
235.6882178149
 21
136.8170044809
 31
0.0
  0
LINE
  5
D1
330
1F
100
AcDbEntity
  8
0
  6
Continuous
 62
     7
370
    25
100
AcDbLine
 10
235.6882178149
 20
80.671106096
 30
0.0
 11
236.6882178149
 21
78.9390552885
 31
0.0
  0
LINE
  5
D2
330
1F
100
AcDbEntity
  8
0
  6
Continuous
 62
     7
370
    25
100
AcDbLine
 10
236.6882178149
 20
78.9390552885
 30
0.0
 11
237.6882178149
 21
80.671106096
 31
0.0
  0
LINE
  5
D3
330
1F
100
AcDbEntity
  8
0
  6
Continuous
 62
     7
370
    25
100
AcDbLine
 10
237.6882178149
 20
136.8170044809
 30
0.0
 11
236.6882178149
 21
138.5490552885
 31
0.0
  0
LINE
  5
D4
330
1F
100
AcDbEntity
  8
0
  6
Continuous
 62
     7
370
    25
100
AcDbLine
 10
238.6882178149
 20
138.5490552885
 30
0.0
 11
237.6882178149
 21
136.8170044809
 31
0.0
  0
LINE
  5
D5
330
1F
100
AcDbEntity
  8
0
  6
Continuous
 62
     7
370
    25
100
AcDbLine
 10
237.6882178149
 20
80.671106096
 30
0.0
 11
238.6882178149
 21
78.9390552885
 31
0.0
  0
LINE
  5
D6
330
1F
100
AcDbEntity
  8
0
  6
Continuous
 62
     7
370
    25
100
AcDbLine
 10
238.6882178149
 20
78.9390552885
 30
0.0
 11
254.1882178149
 21
78.9390552885
 31
0.0
  0
LINE
  5
D7
330
1F
100
AcDbEntity
  8
0
  6
Continuous
 62
     7
370
    25
100
AcDbLine
 10
254.1882178149
 20
138.5490552885
 30
0.0
 11
238.6882178149
 21
138.5490552885
 31
0.0
  0
LINE
  5
D8
330
1F
100
AcDbEntity
  8
0
  6
Continuous
 62
     7
370
    25
100
AcDbLine
 10
266.1882178149
 20
150.3132746701
 30
0.0
 11
254.1882178149
 21
150.3132746701
 31
0.0
  0
LINE
  5
D9
330
1F
100
AcDbEntity
  8
0
  6
Continuous
 62
     7
370
    25
100
AcDbLine
 10
266.1882178149
 20
150.3132746701
 30
0.0
 11
266.1882178149
 21
129.5286649793
 31
0.0
  0
LINE
  5
DA
330
1F
100
AcDbEntity
  8
0
  6
Continuous
 62
     7
370
    25
100
AcDbLine
 10
266.1882178149
 20
129.5286649793
 30
0.0
 11
254.1882178149
 21
129.5286649793
 31
0.0
  0
LINE
  5
DB
330
1F
100
AcDbEntity
  8
0
  6
Continuous
 62
     7
370
    25
100
AcDbLine
 10
254.1882178149
 20
150.3132746701
 30
0.0
 11
254.1882178149
 21
129.5286649793
 31
0.0
  0
LINE
  5
DC
330
1F
100
AcDbEntity
  8
0
  6
Continuous
 62
     7
370
    25
100
AcDbLine
 10
266.1882178149
 20
129.5286649793
 30
0.0
 11
266.1882178149
 21
87.9594455976
 31
0.0
  0
LINE
  5
DD
330
1F
100
AcDbEntity
  8
0
  6
Continuous
 62
     7
370
    25
100
AcDbLine
 10
266.1882178149
 20
87.9594455976
 30
0.0
 11
254.1882178149
 21
87.9594455976
 31
0.0
  0
LINE
  5
DE
330
1F
100
AcDbEntity
  8
0
  6
Continuous
 62
     7
370
    25
100
AcDbLine
 10
254.1882178149
 20
129.5286649793
 30
0.0
 11
254.1882178149
 21
87.9594455976
 31
0.0
  0
LINE
  5
DF
330
1F
100
AcDbEntity
  8
0
  6
Continuous
 62
     7
370
    25
100
AcDbLine
 10
266.1882178149
 20
87.9594455976
 30
0.0
 11
266.1882178149
 21
67.1748359068
 31
0.0
  0
LINE
  5
E0
330
1F
100
AcDbEntity
  8
0
  6
Continuous
 62
     7
370
    25
100
AcDbLine
 10
266.1882178149
 20
67.1748359068
 30
0.0
 11
254.1882178149
 21
67.1748359068
 31
0.0
  0
LINE
  5
E1
330
1F
100
AcDbEntity
  8
0
  6
Continuous
 62
     7
370
    25
100
AcDbLine
 10
254.1882178149
 20
87.9594455976
 30
0.0
 11
254.1882178149
 21
67.1748359068
 31
0.0
  0
LINE
  5
E2
330
1F
100
AcDbEntity
  8
0
  6
Continuous
 62
     7
370
    25
100
AcDbLine
 10
294.1882178149
 20
108.7440552885
 30
0.0
 11
294.1882178149
 21
142.2440552885
 31
0.0
  0
LINE
  5
E3
330
1F
100
AcDbEntity
  8
0
  6
Continuous
 62
     7
370
    25
100
AcDbLine
 10
294.1882178149
 20
75.2440552885
 30
0.0
 11
294.1882178149
 21
108.7440552885
 31
0.0
  0
LINE
  5
E4
330
1F
100
AcDbEntity
  8
0
  6
Continuous
 62
     7
370
    25
100
AcDbLine
 10
356.6882178149
 20
108.7440552885
 30
0.0
 11
356.6882178149
 21
140.2440552885
 31
0.0
  0
LINE
  5
E5
330
1F
100
AcDbEntity
  8
0
  6
Continuous
 62
     7
370
    25
100
AcDbLine
 10
356.6882178149
 20
77.2440552885
 30
0.0
 11
356.6882178149
 21
108.7440552885
 31
0.0
  0
LINE
  5
E6
330
1F
100
AcDbEntity
  8
0
  6
Continuous
 62
     7
370
    25
100
AcDbLine
 10
232.6882178149
 20
108.7440552885
 30
0.0
 11
232.6882178149
 21
138.5490552885
 31
0.0
  0
LINE
  5
E7
330
1F
100
AcDbEntity
  8
0
  6
Continuous
 62
     7
370
    25
100
AcDbLine
 10
232.6882178149
 20
78.9390552885
 30
0.0
 11
232.6882178149
 21
108.7440552885
 31
0.0
  0
LINE
  5
E8
330
1F
100
AcDbEntity
  8
0
  6
Continuous
 62
     7
370
    25
100
AcDbLine
 10
231.6882178149
 20
108.7440552885
 30
0.0
 11
231.6882178149
 21
136.8170044809
 31
0.0
  0
LINE
  5
E9
330
1F
100
AcDbEntity
  8
0
  6
Continuous
 62
     7
370
    25
100
AcDbLine
 10
231.6882178149
 20
80.671106096
 30
0.0
 11
231.6882178149
 21
108.7440552885
 31
0.0
  0
LINE
  5
EA
330
1F
100
AcDbEntity
  8
0
  6
Continuous
 62
     7
370
    25
100
AcDbLine
 10
233.6882178149
 20
108.7440552885
 30
0.0
 11
233.6882178149
 21
136.8170044809
 31
0.0
  0
LINE
  5
EB
330
1F
100
AcDbEntity
  8
0
  6
Continuous
 62
     7
370
    25
100
AcDbLine
 10
233.6882178149
 20
80.671106096
 30
0.0
 11
233.6882178149
 21
108.7440552885
 31
0.0
  0
LINE
  5
EC
330
1F
100
AcDbEntity
  8
0
  6
Continuous
 62
     7
370
    25
100
AcDbLine
 10
234.6882178149
 20
108.7440552885
 30
0.0
 11
234.6882178149
 21
138.5490552885
 31
0.0
  0
LINE
  5
ED
330
1F
100
AcDbEntity
  8
0
  6
Continuous
 62
     7
370
    25
100
AcDbLine
 10
234.6882178149
 20
78.9390552885
 30
0.0
 11
234.6882178149
 21
108.7440552885
 31
0.0
  0
LINE
  5
EE
330
1F
100
AcDbEntity
  8
0
  6
Continuous
 62
     7
370
    25
100
AcDbLine
 10
235.6882178149
 20
108.7440552885
 30
0.0
 11
235.6882178149
 21
136.8170044809
 31
0.0
  0
LINE
  5
EF
330
1F
100
AcDbEntity
  8
0
  6
Continuous
 62
     7
370
    25
100
AcDbLine
 10
235.6882178149
 20
80.671106096
 30
0.0
 11
235.6882178149
 21
108.7440552885
 31
0.0
  0
LINE
  5
F0
330
1F
100
AcDbEntity
  8
0
  6
Continuous
 62
     7
370
    25
100
AcDbLine
 10
236.6882178149
 20
108.7440552885
 30
0.0
 11
236.6882178149
 21
138.5490552885
 31
0.0
  0
LINE
  5
F1
330
1F
100
AcDbEntity
  8
0
  6
Continuous
 62
     7
370
    25
100
AcDbLine
 10
236.6882178149
 20
78.9390552885
 30
0.0
 11
236.6882178149
 21
108.7440552885
 31
0.0
  0
LINE
  5
F2
330
1F
100
AcDbEntity
  8
0
  6
Continuous
 62
     7
370
    25
100
AcDbLine
 10
237.6882178149
 20
108.7440552885
 30
0.0
 11
237.6882178149
 21
136.8170044809
 31
0.0
  0
LINE
  5
F3
330
1F
100
AcDbEntity
  8
0
  6
Continuous
 62
     7
370
    25
100
AcDbLine
 10
237.6882178149
 20
80.671106096
 30
0.0
 11
237.6882178149
 21
108.7440552885
 31
0.0
  0
LINE
  5
F4
330
1F
100
AcDbEntity
  8
0
  6
Continuous
 62
     7
370
    25
100
AcDbLine
 10
238.6882178149
 20
108.7440552885
 30
0.0
 11
238.6882178149
 21
138.5490552885
 31
0.0
  0
LINE
  5
F5
330
1F
100
AcDbEntity
  8
0
  6
Continuous
 62
     7
370
    25
100
AcDbLine
 10
238.6882178149
 20
78.9390552885
 30
0.0
 11
238.6882178149
 21
108.7440552885
 31
0.0
  0
LINE
  5
F6
330
1F
100
AcDbEntity
  8
0
  6
Continuous
 62
     1
370
    25
100
AcDbLine
 10
293.6882178149
 20
108.7440552885
 30
0.0
 11
293.6882178149
 21
142.7440552885
 31
0.0
  0
LINE
  5
F7
330
1F
100
AcDbEntity
  8
0
  6
Continuous
 62
     1
370
    25
100
AcDbLine
 10
293.6882178149
 20
74.7440552885
 30
0.0
 11
293.6882178149
 21
108.7440552885
 31
0.0
  0
LINE
  5
F8
330
1F
100
AcDbEntity
  8
0
  6
Continuous
 62
     7
370
    25
100
AcDbLine
 10
-28.379932771
 20
142.7440552885
 30
0.0
 11
-55.879932771
 21
142.7440552885
 31
0.0
  0
LINE
  5
F9
330
1F
100
AcDbEntity
  8
0
  6
Continuous
 62
     7
370
    25
100
AcDbLine
 10
-55.879932771
 20
74.7440552885
 30
0.0
 11
-28.379932771
 21
74.7440552885
 31
0.0
  0
ARC
  5
FA
330
1F
100
AcDbEntity
  8
0
  6
Continuous
 62
     7
370
    25
100
AcDbCircle
 10
-55.879932771
 20
142.2440552885
 30
0.0
 40
0.5
100
AcDbArc
 50
90.0
 51
180.0
  0
ARC
  5
FB
330
1F
100
AcDbEntity
  8
0
  6
Continuous
 62
     7
370
    25
100
AcDbCircle
 10
-55.879932771
 20
75.2440552885
 30
0.0
 40
0.5
100
AcDbArc
 50
180.0
 51
270.0
  0
LINE
  5
FC
330
1F
100
AcDbEntity
  8
0
  6
Continuous
 62
     7
370
    25
100
AcDbLine
 10
-56.379932771
 20
140.2440552885
 30
0.0
 11
-118.879932771
 21
140.2440552885
 31
0.0
  0
LINE
  5
FD
330
1F
100
AcDbEntity
  8
0
  6
Continuous
 62
     7
370
    25
100
AcDbLine
 10
-118.879932771
 20
77.2440552885
 30
0.0
 11
-56.379932771
 21
77.2440552885
 31
0.0
  0
LINE
  5
FE
330
1F
100
AcDbEntity
  8
0
  6
Continuous
 62
     7
370
    25
100
AcDbLine
 10
5.120067229
 20
78.9390552885
 30
0.0
 11
6.120067229
 21
80.671106096
 31
0.0
  0
LINE
  5
FF
330
1F
100
AcDbEntity
  8
0
  6
Continuous
 62
     7
370
    25
100
AcDbLine
 10
6.120067229
 20
136.8170044809
 30
0.0
 11
5.120067229
 21
138.5490552885
 31
0.0
  0
LINE
  5
100
330
1F
100
AcDbEntity
  8
0
  6
Continuous
 62
     7
370
    25
100
AcDbLine
 10
5.120067229
 20
138.5490552885
 30
0.0
 11
4.120067229
 21
136.8170044809
 31
0.0
  0
LINE
  5
101
330
1F
100
AcDbEntity
  8
0
  6
Continuous
 62
     7
370
    25
100
AcDbLine
 10
4.120067229
 20
80.671106096
 30
0.0
 11
5.120067229
 21
78.9390552885
 31
0.0
  0
LINE
  5
102
330
1F
100
AcDbEntity
  8
0
  6
Continuous
 62
     7
370
    25
100
AcDbLine
 10
3.120067229
 20
78.9390552885
 30
0.0
 11
4.120067229
 21
80.671106096
 31
0.0
  0
LINE
  5
103
330
1F
100
AcDbEntity
  8
0
  6
Continuous
 62
     7
370
    25
100
AcDbLine
 10
4.120067229
 20
136.8170044809
 30
0.0
 11
3.120067229
 21
138.5490552885
 31
0.0
  0
LINE
  5
104
330
1F
100
AcDbEntity
  8
0
  6
Continuous
 62
     7
370
    25
100
AcDbLine
 10
3.120067229
 20
138.5490552885
 30
0.0
 11
2.120067229
 21
136.8170044809
 31
0.0
  0
LINE
  5
105
330
1F
100
AcDbEntity
  8
0
  6
Continuous
 62
     7
370
    25
100
AcDbLine
 10
2.120067229
 20
80.671106096
 30
0.0
 11
3.120067229
 21
78.9390552885
 31
0.0
  0
LINE
  5
106
330
1F
100
AcDbEntity
  8
0
  6
Continuous
 62
     7
370
    25
100
AcDbLine
 10
1.120067229
 20
78.9390552885
 30
0.0
 11
2.120067229
 21
80.671106096
 31
0.0
  0
LINE
  5
107
330
1F
100
AcDbEntity
  8
0
  6
Continuous
 62
     7
370
    25
100
AcDbLine
 10
2.120067229
 20
136.8170044809
 30
0.0
 11
1.120067229
 21
138.5490552885
 31
0.0
  0
LINE
  5
108
330
1F
100
AcDbEntity
  8
0
  6
Continuous
 62
     7
370
    25
100
AcDbLine
 10
1.120067229
 20
138.5490552885
 30
0.0
 11
0.120067229
 21
136.8170044809
 31
0.0
  0
LINE
  5
109
330
1F
100
AcDbEntity
  8
0
  6
Continuous
 62
     7
370
    25
100
AcDbLine
 10
0.120067229
 20
80.671106096
 30
0.0
 11
1.120067229
 21
78.9390552885
 31
0.0
  0
LINE
  5
10A
330
1F
100
AcDbEntity
  8
0
  6
Continuous
 62
     7
370
    25
100
AcDbLine
 10
-0.879932771
 20
78.9390552885
 30
0.0
 11
0.120067229
 21
80.671106096
 31
0.0
  0
LINE
  5
10B
330
1F
100
AcDbEntity
  8
0
  6
Continuous
 62
     7
370
    25
100
AcDbLine
 10
0.120067229
 20
136.8170044809
 30
0.0
 11
-0.879932771
 21
138.5490552885
 31
0.0
  0
LINE
  5
10C
330
1F
100
AcDbEntity
  8
0
  6
Continuous
 62
     7
370
    25
100
AcDbLine
 10
-0.879932771
 20
138.5490552885
 30
0.0
 11
-16.379932771
 21
138.5490552885
 31
0.0
  0
LINE
  5
10D
330
1F
100
AcDbEntity
  8
0
  6
Continuous
 62
     7
370
    25
100
AcDbLine
 10
-16.379932771
 20
78.9390552885
 30
0.0
 11
-0.879932771
 21
78.9390552885
 31
0.0
  0
LINE
  5
10E
330
1F
100
AcDbEntity
  8
0
  6
Continuous
 62
     7
370
    25
100
AcDbLine
 10
-28.379932771
 20
67.1748359068
 30
0.0
 11
-16.379932771
 21
67.1748359068
 31
0.0
  0
LINE
  5
10F
330
1F
100
AcDbEntity
  8
0
  6
Continuous
 62
     7
370
    25
100
AcDbLine
 10
-28.379932771
 20
67.1748359068
 30
0.0
 11
-28.379932771
 21
87.9594455976
 31
0.0
  0
LINE
  5
110
330
1F
100
AcDbEntity
  8
0
  6
Continuous
 62
     7
370
    25
100
AcDbLine
 10
-28.379932771
 20
87.9594455976
 30
0.0
 11
-16.379932771
 21
87.9594455976
 31
0.0
  0
LINE
  5
111
330
1F
100
AcDbEntity
  8
0
  6
Continuous
 62
     7
370
    25
100
AcDbLine
 10
-16.379932771
 20
67.1748359068
 30
0.0
 11
-16.379932771
 21
87.9594455976
 31
0.0
  0
LINE
  5
112
330
1F
100
AcDbEntity
  8
0
  6
Continuous
 62
     7
370
    25
100
AcDbLine
 10
-28.379932771
 20
87.9594455976
 30
0.0
 11
-28.379932771
 21
129.5286649793
 31
0.0
  0
LINE
  5
113
330
1F
100
AcDbEntity
  8
0
  6
Continuous
 62
     7
370
    25
100
AcDbLine
 10
-28.379932771
 20
129.5286649793
 30
0.0
 11
-16.379932771
 21
129.5286649793
 31
0.0
  0
LINE
  5
114
330
1F
100
AcDbEntity
  8
0
  6
Continuous
 62
     7
370
    25
100
AcDbLine
 10
-16.379932771
 20
87.9594455976
 30
0.0
 11
-16.379932771
 21
129.5286649793
 31
0.0
  0
LINE
  5
115
330
1F
100
AcDbEntity
  8
0
  6
Continuous
 62
     7
370
    25
100
AcDbLine
 10
-28.379932771
 20
129.5286649793
 30
0.0
 11
-28.379932771
 21
150.3132746701
 31
0.0
  0
LINE
  5
116
330
1F
100
AcDbEntity
  8
0
  6
Continuous
 62
     7
370
    25
100
AcDbLine
 10
-28.379932771
 20
150.3132746701
 30
0.0
 11
-16.379932771
 21
150.3132746701
 31
0.0
  0
LINE
  5
117
330
1F
100
AcDbEntity
  8
0
  6
Continuous
 62
     7
370
    25
100
AcDbLine
 10
-16.379932771
 20
129.5286649793
 30
0.0
 11
-16.379932771
 21
150.3132746701
 31
0.0
  0
LINE
  5
118
330
1F
100
AcDbEntity
  8
0
  6
Continuous
 62
     7
370
    25
100
AcDbLine
 10
-56.379932771
 20
142.2440552885
 30
0.0
 11
-56.379932771
 21
75.2440552885
 31
0.0
  0
LINE
  5
119
330
1F
100
AcDbEntity
  8
0
  6
Continuous
 62
     7
370
    25
100
AcDbLine
 10
-118.879932771
 20
140.2440552885
 30
0.0
 11
-118.879932771
 21
77.2440552885
 31
0.0
  0
LINE
  5
11A
330
1F
100
AcDbEntity
  8
0
  6
Continuous
 62
     7
370
    25
100
AcDbLine
 10
5.120067229
 20
138.5490552885
 30
0.0
 11
5.120067229
 21
78.9390552885
 31
0.0
  0
LINE
  5
11B
330
1F
100
AcDbEntity
  8
0
  6
Continuous
 62
     7
370
    25
100
AcDbLine
 10
6.120067229
 20
136.8170044809
 30
0.0
 11
6.120067229
 21
80.671106096
 31
0.0
  0
LINE
  5
11C
330
1F
100
AcDbEntity
  8
0
  6
Continuous
 62
     7
370
    25
100
AcDbLine
 10
4.120067229
 20
136.8170044809
 30
0.0
 11
4.120067229
 21
80.671106096
 31
0.0
  0
LINE
  5
11D
330
1F
100
AcDbEntity
  8
0
  6
Continuous
 62
     7
370
    25
100
AcDbLine
 10
3.120067229
 20
138.5490552885
 30
0.0
 11
3.120067229
 21
78.9390552885
 31
0.0
  0
LINE
  5
11E
330
1F
100
AcDbEntity
  8
0
  6
Continuous
 62
     7
370
    25
100
AcDbLine
 10
2.120067229
 20
136.8170044809
 30
0.0
 11
2.120067229
 21
80.671106096
 31
0.0
  0
LINE
  5
11F
330
1F
100
AcDbEntity
  8
0
  6
Continuous
 62
     7
370
    25
100
AcDbLine
 10
1.120067229
 20
138.5490552885
 30
0.0
 11
1.120067229
 21
78.9390552885
 31
0.0
  0
LINE
  5
120
330
1F
100
AcDbEntity
  8
0
  6
Continuous
 62
     7
370
    25
100
AcDbLine
 10
0.120067229
 20
136.8170044809
 30
0.0
 11
0.120067229
 21
80.671106096
 31
0.0
  0
LINE
  5
121
330
1F
100
AcDbEntity
  8
0
  6
Continuous
 62
     7
370
    25
100
AcDbLine
 10
-0.879932771
 20
138.5490552885
 30
0.0
 11
-0.879932771
 21
78.9390552885
 31
0.0
  0
LINE
  5
122
330
1F
100
AcDbEntity
  8
0
  6
Continuous
 62
     1
370
    25
100
AcDbLine
 10
-55.879932771
 20
142.7440552885
 30
0.0
 11
-55.879932771
 21
74.7440552885
 31
0.0
  0
LINE
  5
123
330
1F
100
AcDbEntity
  8
0
  6
Continuous
 62
     7
370
    25
100
AcDbLine
 10
314.7135783904
 20
-0.4583059739
 30
0.0
 11
270.5194045663
 21
25.0544475206
 31
0.0
  0
LINE
  5
124
330
1F
100
AcDbEntity
  8
0
  6
Continuous
 62
     7
370
    25
100
AcDbLine
 10
239.0219644883
 20
-29.5066308094
 30
0.0
 11
283.2161383124
 21
-55.0193843039
 31
0.0
  0
SPLINE
  5
125
330
1F
100
AcDbEntity
  8
0
  6
Continuous
 62
     7
370
    25
100
AcDbSpline
210
0.0
220
0.0
230
1.0
 70
     8
 71
     3
 72
    12
 73
     8
 74
     0
 42
0.00000001
 43
0.00000001
 40
0.0
 40
0.0
 40
0.0
 40
0.0
 40
0.0125747095346794
 40
0.2645352389378116
 40
0.5169709902452775
 40
0.7699470698078446
 40
1.0
 40
1.0
 40
1.0
 40
1.0
 10
313.1908067121658
 20
2.751250062568024
 30
0.0
 10
313.1729986889264
 20
2.756442470119268
 30
0.0
 10
312.798369782417
 20
2.865675591444281
 30
0.0
 10
312.0284671485443
 20
2.993355831624786
 30
0.0
 10
310.8810141679824
 20
3.123616235722937
 30
0.0
 10
309.7326483744729
 20
3.156699384394147
 30
0.0
 10
308.9561871135194
 20
3.103965541658794
 30
0.0
 10
308.5863807775526
 20
3.078849917552258
 30
0.0
  0
SPLINE
  5
126
330
1F
100
AcDbEntity
  8
0
  6
Continuous
 62
     7
370
    25
100
AcDbSpline
210
0.0
220
0.0
230
1.0
 70
     8
 71
     3
 72
    12
 73
     8
 74
     0
 42
0.00000001
 43
0.00000001
 40
0.0
 40
0.0
 40
0.0
 40
0.0
 40
0.0499995840999954
 40
0.3034554193580951
 40
0.5564485171553075
 40
0.8089065983014533
 40
1.0
 40
1.0
 40
1.0
 40
1.0
 10
277.0941945970881
 20
-51.48526142293925
 30
0.0
 10
277.1271773554793
 20
-51.56055433472413
 30
0.0
 10
277.3273549561404
 20
-52.01751897816354
 30
0.0
 10
277.7612765694768
 20
-52.78773951676531
 30
0.0
 10
278.3995248297532
 20
-53.7841512042376
 30
0.0
 10
279.0438559974517
 20
-54.63146774477131
 30
0.0
 10
279.5000789931391
 20
-55.1113491307058
 30
0.0
 10
279.6966316089029
 20
-55.31809439026825
 30
0.0
  0
LINE
  5
127
330
1F
100
AcDbEntity
  8
0
  6
Continuous
 62
     7
370
    25
100
AcDbLine
 10
335.7624666795
 20
-9.7228973835
 30
0.0
 11
316.3170301968
 21
1.5027141541
 31
0.0
  0
LINE
  5
128
330
1F
100
AcDbEntity
  8
0
  6
Continuous
 62
     7
370
    25
100
AcDbLine
 10
282.3197932872
 20
-57.3886084878
 30
0.0
 11
301.7652297698
 21
-68.6142200253
 31
0.0
  0
LINE
  5
129
330
1F
100
AcDbEntity
  8
0
  6
Continuous
 62
     7
370
    25
100
AcDbLine
 10
353.1105736204
 20
-24.5815838987
 30
0.0
 11
352.7049737216
 21
-24.3474360611
 31
0.0
  0
LWPOLYLINE
  5
12A
330
1F
100
AcDbEntity
  8
0
  6
Continuous
 62
     7
370
    25
100
AcDbPolyline
 90
      105
 70
   128
 43
0.0
 10
232.4968209199
 20
-15.0845194056
 10
232.5374583763
 20
-13.5080624213
 10
232.6592224638
 20
-11.8904387491
 10
232.8616688784
 20
-10.2375509223
 10
233.1440589152
 20
-8.5554301495
 10
233.5053621635
 20
-6.8502143068
 10
233.944260267
 20
-5.1281255421
 10
234.4591517341
 20
-3.3954475703
 10
235.0481577815
 20
-1.6585027456
 10
235.7091291903
 20
0.0763710087
 10
236.4396541473
 20
1.8028433266
 10
237.2370670462
 20
3.5146144976
 10
238.0984582139
 20
5.2054384545
 10
239.0206845273
 20
6.869145564
 10
240.0003808827
 20
8.4996651393
 10
241.0339724742
 20
10.0910475912
 10
242.1176878384
 20
11.6374861379
 10
243.2475726153
 20
13.1333379926
 10
244.419503978
 20
14.5731449543
 10
245.6292056759
 20
15.9516533234
 10
246.8722636388
 20
17.2638330725
 10
248.1441420829
 20
18.5048961999
 10
249.4402000618
 20
19.6703142009
 10
250.7557084005
 20
20.7558345915
 10
252.0858669516
 20
21.7574964256
 10
253.4258221109
 20
22.6716447478
 10
254.7706845273
 20
23.49494393
 10
256.1155469437
 20
24.2243898427
 10
257.455502103
 20
24.8573208169
 10
258.7856606541
 20
25.3914273562
 10
260.1011689927
 20
25.8247605636
 10
261.3972269716
 20
26.1557392534
 10
262.6691054158
 20
26.3831557201
 10
263.9121633786
 20
26.5061801458
 10
265.1218650766
 20
26.5243636277
 10
266.2937964392
 20
26.4376398161
 10
267.4236812161
 20
26.2463251569
 10
268.5073965803
 20
25.9511177366
 10
269.5409881719
 20
25.5530947349
 10
270.5206845273
 20
25.0537084947
 10
271.4429108407
 20
24.4547812222
 10
272.3043020083
 20
23.7584983381
 10
273.1017149073
 20
22.967400503
 10
273.8322398643
 20
22.0843743473
 10
274.493211273
 20
21.1126419375
 10
275.0822173205
 20
20.05574902
 10
275.5971087875
 20
18.9175520822
 10
276.036006891
 20
17.7022042814
 10
276.3973101393
 20
16.4141402899
 10
276.6797001761
 20
15.0580601136
 10
276.8821465908
 20
13.6389119419
 10
277.0039106783
 20
12.1618740927
 10
277.0445481346
 20
10.6323361168
 10
277.0039106783
 20
9.0558791324
 10
276.8821465908
 20
7.4382554602
 10
276.6797001761
 20
5.7853676335
 10
276.3973101393
 20
4.1032468606
 10
276.036006891
 20
2.398031018
 10
275.5971087875
 20
0.6759422532
 10
275.0822173205
 20
-1.0567357185
 10
274.493211273
 20
-2.7936805432
 10
273.8322398643
 20
-4.5285542976
 10
273.1017149073
 20
-6.2550266154
 10
272.3043020083
 20
-7.9667977865
 10
271.4429108407
 20
-9.6576217434
 10
270.5206845273
 20
-11.3213288529
 10
269.5409881719
 20
-12.9518484281
 10
268.5073965803
 20
-14.5432308801
 10
267.4236812161
 20
-16.0896694267
 10
266.2937964392
 20
-17.5855212815
 10
265.1218650766
 20
-19.0253282431
 10
263.9121633786
 20
-20.4038366123
 10
262.6691054158
 20
-21.7160163614
 10
261.3972269716
 20
-22.9570794888
 10
260.1011689927
 20
-24.1224974897
 10
258.7856606541
 20
-25.2080178804
 10
257.455502103
 20
-26.2096797145
 10
256.1155469437
 20
-27.1238280367
 10
254.7706845273
 20
-27.9471272188
 10
253.4258221109
 20
-28.6765731315
 10
252.0858669516
 20
-29.3095041058
 10
250.7557084005
 20
-29.843610645
 10
249.4402000618
 20
-30.2769438525
 10
248.1441420829
 20
-30.6079225422
 10
246.8722636388
 20
-30.835339009
 10
245.6292056759
 20
-30.9583634347
 10
244.419503978
 20
-30.9765469165
 10
243.2475726153
 20
-30.8898231049
 10
242.1176878384
 20
-30.6985084458
 10
241.0339724742
 20
-30.4033010254
 10
240.0003808827
 20
-30.0052780238
 10
239.0206845273
 20
-29.5058917836
 10
238.0984582139
 20
-28.9069645111
 10
237.2370670462
 20
-28.2106816269
 10
236.4396541473
 20
-27.4195837919
 10
235.7091291903
 20
-26.5365576362
 10
235.0481577815
 20
-25.5648252264
 10
234.4591517341
 20
-24.5079323088
 10
233.944260267
 20
-23.369735371
 10
233.5053621635
 20
-22.1543875702
 10
233.1440589152
 20
-20.8663235788
 10
232.8616688784
 20
-19.5102434025
 10
232.6592224638
 20
-18.0910952308
 10
232.5374583763
 20
-16.6140573815
 10
232.4968209199
 20
-15.0845194056
  0
LWPOLYLINE
  5
12B
330
1F
100
AcDbEntity
  8
0
  6
Continuous
 62
     7
370
    25
100
AcDbPolyline
 90
       54
 70
   128
 43
0.0
 10
314.7135783904
 20
-0.4583059739
 10
314.7148583514
 20
-0.4590449997
 10
315.6370846648
 20
-1.0579722722
 10
316.4984758325
 20
-1.7542551564
 10
317.2958887314
 20
-2.5453529914
 10
318.0264136884
 20
-3.4283791472
 10
318.6873850972
 20
-4.4001115569
 10
319.2763911446
 20
-5.4570044745
 10
319.7912826117
 20
-6.5952014123
 10
320.2301807152
 20
-7.8105492131
 10
320.5914839635
 20
-9.0986132045
 10
320.8738740003
 20
-10.4546933808
 10
321.0763204149
 20
-11.8738415525
 10
321.1980845024
 20
-13.3508794018
 10
321.2387219588
 20
-14.8804173777
 10
321.1980845024
 20
-16.456874362
 10
321.0763204149
 20
-18.0744980343
 10
320.8738740003
 20
-19.727385861
 10
320.5914839635
 20
-21.4095066338
 10
320.2301807152
 20
-23.1147224765
 10
319.7912826117
 20
-24.8368112412
 10
319.2763911446
 20
-26.569489213
 10
318.6873850972
 20
-28.3064340377
 10
318.0264136884
 20
-30.041307792
 10
317.2958887314
 20
-31.7677801099
 10
316.4984758325
 20
-33.4795512809
 10
315.6370846648
 20
-35.1703752378
 10
314.7148583514
 20
-36.8340823473
 10
313.735161996
 20
-38.4646019226
 10
312.7015704045
 20
-40.0559843745
 10
311.6178550403
 20
-41.6024229212
 10
310.4879702634
 20
-43.0982747759
 10
309.3160389007
 20
-44.5380817376
 10
308.1063372028
 20
-45.9165901067
 10
306.8632792399
 20
-47.2287698558
 10
305.5914007958
 20
-48.4698329832
 10
304.2953428169
 20
-49.6352509842
 10
302.9798344782
 20
-50.7207713748
 10
301.6496759271
 20
-51.7224332089
 10
300.3097207678
 20
-52.6365815311
 10
298.9648583514
 20
-53.4598807133
 10
297.619995935
 20
-54.189326626
 10
296.2800407757
 20
-54.8222576002
 10
294.9498822246
 20
-55.3563641395
 10
293.634373886
 20
-55.7896973469
 10
292.3383159071
 20
-56.1206760367
 10
291.0664374629
 20
-56.3480925034
 10
289.8233795001
 20
-56.4711169291
 10
288.6136778021
 20
-56.489300411
 10
287.4417464395
 20
-56.4025765994
 10
286.3118616626
 20
-56.2112619402
 10
285.2281462984
 20
-55.9160545199
 10
284.1945547068
 20
-55.5180315182
 10
283.2161383124
 20
-55.0193843039
  0
LWPOLYLINE
  5
12C
330
1F
100
AcDbEntity
  8
0
  6
Continuous
 62
     7
370
    25
100
AcDbPolyline
 90
       95
 70
   128
 43
0.0
 10
236.5980402508
 20
-12.7169358813
 10
236.6386219712
 20
-11.2918585302
 10
236.7601858846
 20
-9.8262912634
 10
236.9621890571
 20
-8.3267796601
 10
237.2437292934
 20
-6.8000209032
 10
237.6035491665
 20
-5.2528338678
 10
238.0400416335
 20
-3.692128667
 10
238.5512572131
 20
-2.1248757889
 10
239.1349126924
 20
-0.5580749654
 10
239.7884013244
 20
1.0012760907
 10
240.5088044702
 20
2.5462129391
 10
241.2929046344
 20
4.0698355167
 10
242.1371998354
 20
5.5653389552
 10
243.0379192459
 20
7.0260439732
 10
243.9910400343
 20
8.4454267076
 10
244.9923053318
 20
9.8171478505
 10
246.0372432445
 20
11.1350809623
 10
247.1211868261
 20
12.3933398337
 10
248.2392949213
 20
13.5863047752
 10
249.386573788
 20
14.7086477158
 10
250.5578994003
 20
15.7553559995
 10
251.7480403337
 20
16.7217547729
 10
252.9516811298
 20
17.6035278645
 10
254.1634460366
 20
18.3967370617
 10
255.3779230179
 20
19.0978396997
 10
256.5896879248
 20
19.7037044838
 10
257.7933287208
 20
20.2116254748
 10
258.9834696542
 20
20.6193341744
 10
260.1547952665
 20
20.9250096564
 10
261.3020741333
 20
21.1272867
 10
262.4201822285
 20
21.2252618868
 10
263.5041258101
 20
21.2184976358
 10
264.5490637228
 20
21.1070241579
 10
265.5503290203
 20
20.8913393205
 10
266.5034498086
 20
20.5724064247
 10
267.4041692191
 20
20.151649902
 10
268.2484644201
 20
19.6309489533
 10
269.0325645844
 20
19.0126291555
 10
269.7529677301
 20
18.2994520747
 10
270.4064563621
 20
17.4946029331
 10
270.9901118414
 20
16.6016763822
 10
271.501327421
 20
15.6246604488
 10
271.9378198881
 20
14.5679187232
 10
272.2976397612
 20
13.4361708705
 10
272.5791799975
 20
12.2344715513
 10
272.7811831699
 20
10.9681878465
 10
272.9027470834
 20
9.6429752866
 10
272.9433288038
 20
8.2647525925
 10
272.9027470834
 20
6.8396752413
 10
272.7811831699
 20
5.3741079745
 10
272.5791799975
 20
3.8745963712
 10
272.2976397612
 20
2.3478376143
 10
271.9378198881
 20
0.800650579
 10
271.501327421
 20
-0.7600546219
 10
270.9901118414
 20
-2.3273075
 10
270.4064563621
 20
-3.8941083235
 10
269.7529677301
 20
-5.4534593796
 10
269.0325645844
 20
-6.9983962279
 10
268.2484644201
 20
-8.5220188055
 10
267.4041692191
 20
-10.017522244
 10
266.5034498086
 20
-11.4782272621
 10
265.5503290203
 20
-12.8976099965
 10
264.5490637228
 20
-14.2693311394
 10
263.5041258101
 20
-15.5872642511
 10
262.4201822285
 20
-16.8455231226
 10
261.3020741333
 20
-18.0384880641
 10
260.1547952665
 20
-19.1608310047
 10
258.9834696542
 20
-20.2075392883
 10
257.7933287208
 20
-21.1739380617
 10
256.5896879248
 20
-22.0557111534
 10
255.3779230179
 20
-22.8489203506
 10
254.1634460366
 20
-23.5500229885
 10
252.9516811298
 20
-24.1558877726
 10
251.7480403337
 20
-24.6638087637
 10
250.5578994003
 20
-25.0715174632
 10
249.386573788
 20
-25.3771929452
 10
248.2392949213
 20
-25.5794699888
 10
247.1211868261
 20
-25.6774451756
 10
246.0372432445
 20
-25.6706809247
 10
244.9923053318
 20
-25.5592074467
 10
243.9910400343
 20
-25.3435226094
 10
243.0379192459
 20
-25.0245897135
 10
242.1371998354
 20
-24.6038331909
 10
241.2929046344
 20
-24.0831322422
 10
240.5088044702
 20
-23.4648124443
 10
239.7884013244
 20
-22.7516353636
 10
239.1349126924
 20
-21.9467862219
 10
238.5512572131
 20
-21.053859671
 10
238.0400416335
 20
-20.0768437376
 10
237.6035491665
 20
-19.020102012
 10
237.2437292934
 20
-17.8883541593
 10
236.9621890571
 20
-16.6866548401
 10
236.7601858846
 20
-15.4203711354
 10
236.6386219712
 20
-14.0951585754
 10
236.5980402508
 20
-12.7169358813
  0
ARC
  5
12D
330
1F
100
AcDbEntity
  8
0
  6
Continuous
 62
     7
370
    25
100
AcDbCircle
 10
310.5457903775
 20
-8.4939968751
 30
0.0
 40
11.54082089931743
100
AcDbArc
 50
43.9615191439
 51
76.3098079021
  0
ARC
  5
12E
330
1F
100
AcDbEntity
  8
0
  6
Continuous
 62
     7
370
    25
100
AcDbCircle
 10
288.0917464116
 20
-47.3904409831
 30
0.0
 40
11.54240985249664
100
AcDbArc
 50
223.8215645447
 51
256.3183608664
  0
LWPOLYLINE
  5
12F
330
1F
100
AcDbEntity
  8
0
  6
Continuous
 62
     7
370
    25
100
AcDbPolyline
 90
       56
 70
   128
 43
0.0
 10
335.7624666795
 20
-9.7228973835
 10
336.2510965947
 20
-10.0216787616
 10
337.1808057189
 20
-10.6913566817
 10
338.0481976888
 20
-11.4573924392
 10
338.8503375243
 20
-12.3171940116
 10
339.5845110383
 20
-13.2678521025
 10
340.24823402
 20
-14.3061499859
 10
340.8392606408
 20
-15.4285743904
 10
341.3555910539
 20
-16.6313273871
 10
341.7954781604
 20
-17.9103392405
 10
342.1574335218
 20
-19.2612821795
 10
342.4402323955
 20
-20.6795850408
 10
342.6429178798
 20
-22.1604487364
 10
342.7648041512
 20
-23.6988624923
 10
342.805478785
 20
-25.2896208034
 10
342.7648041512
 20
-26.9273410471
 10
342.6429178798
 20
-28.6064816965
 10
342.4402323955
 20
-30.3213610711
 10
342.1574335218
 20
-32.066176562
 10
341.7954781604
 20
-33.8350242658
 10
341.3555910539
 20
-35.6219189619
 10
340.8392606408
 20
-37.4208143643
 10
340.24823402
 20
-39.2256235802
 10
339.5845110383
 20
-41.0302397067
 10
338.8503375243
 20
-42.8285564939
 10
338.0481976888
 20
-44.6144890072
 10
337.1808057189
 20
-46.3819942162
 10
336.2510965947
 20
-48.1250914428
 10
335.2622161574
 20
-49.8378825977
 10
334.2175104655
 20
-51.5145721379
 10
333.1205144723
 20
-53.1494866766
 10
331.974940065
 20
-54.7370941807
 10
330.7846635048
 20
-56.2720226888
 10
329.5537123108
 20
-57.7490784887
 10
328.2862516322
 20
-59.1632636913
 10
326.9865701547
 20
-60.5097931413
 10
325.659065589
 20
-61.7841106094
 10
324.3082297904
 20
-62.9819042086
 10
322.9386335596
 20
-64.0991209846
 10
321.5549111767
 20
-65.1319806294
 10
320.1617447203
 20
-66.076988273
 10
318.7638482247
 20
-66.9309463085
 10
317.365951729
 20
-67.6909652124
 10
315.9727852726
 20
-68.3544733212
 10
314.5890628897
 20
-68.9192255335
 10
313.2194666589
 20
-69.3833109067
 10
311.8686308603
 20
-69.7451591226
 10
310.5411262946
 20
-70.0035458015
 10
309.2414448171
 20
-70.1575966446
 10
307.9739841385
 20
-70.2067903928
 10
306.7430329445
 20
-70.1509605898
 10
305.5527563843
 20
-69.990296146
 10
304.407181977
 20
-69.7253406992
 10
303.3101859838
 20
-69.3569907746
 10
302.2654802919
 20
-68.8864927518
 10
301.7652297698
 20
-68.6142200253
  0
LINE
  5
130
330
1F
100
AcDbEntity
  8
0
  6
Continuous
 62
     7
370
    25
100
AcDbLine
 10
318.7638482247
 20
-73.1115228478
 30
0.0
 11
327.2491295989
 21
-78.0099715187
 31
0.0
  0
LINE
  5
131
330
1F
100
AcDbEntity
  8
0
  6
Continuous
 62
     7
370
    25
100
AcDbLine
 10
318.7638482247
 20
-73.1115228478
 30
0.0
 11
344.2196923474
 21
-41.4446947633
 31
0.0
  0
LINE
  5
132
330
1F
100
AcDbEntity
  8
0
  6
Continuous
 62
     7
370
    25
100
AcDbLine
 10
344.2196923474
 20
-41.4446947633
 30
0.0
 11
352.7049737216
 21
-46.3431434342
 31
0.0
  0
LINE
  5
133
330
1F
100
AcDbEntity
  8
0
  6
Continuous
 62
     7
370
    25
100
AcDbLine
 10
327.2491295989
 20
-78.0099715187
 30
0.0
 11
352.7049737216
 21
-46.3431434342
 31
0.0
  0
LINE
  5
134
330
1F
100
AcDbEntity
  8
0
  6
Continuous
 62
     7
370
    25
100
AcDbLine
 10
293.3080041019
 20
-63.7319675689
 30
0.0
 11
293.3080041019
 21
-70.8353867889
 31
0.0
  0
LINE
  5
135
330
1F
100
AcDbEntity
  8
0
  6
Continuous
 62
     7
370
    25
100
AcDbLine
 10
344.2196923474
 20
-7.5017306199
 30
0.0
 11
329.6597055952
 21
-6.1998483997
 31
0.0
  0
LINE
  5
136
330
1F
100
AcDbEntity
  8
0
  6
Continuous
 62
     7
370
    25
100
AcDbLine
 10
344.2196923474
 20
-41.4446947633
 30
0.0
 11
344.2196923474
 21
-7.5017306199
 31
0.0
  0
LINE
  5
137
330
1F
100
AcDbEntity
  8
0
  6
Continuous
 62
     7
370
    25
100
AcDbLine
 10
293.3080041019
 20
-70.8353867889
 30
0.0
 11
318.7638482247
 21
-73.1115228478
 31
0.0
  0
LINE
  5
138
330
1F
100
AcDbEntity
  8
0
  6
Continuous
 62
     7
370
    25
100
AcDbLine
 10
344.2196923474
 20
-7.5017306199
 30
0.0
 11
352.7049737216
 21
-12.4001792909
 31
0.0
  0
LINE
  5
139
330
1F
100
AcDbEntity
  8
0
  6
Continuous
 62
     7
370
    25
100
AcDbLine
 10
352.7049737216
 20
-46.3431434342
 30
0.0
 11
352.7049737216
 21
-12.4001792909
 31
0.0
  0
LWPOLYLINE
  5
13A
330
1F
100
AcDbEntity
  8
0
  6
Continuous
 62
     7
370
    25
100
AcDbPolyline
 90
       49
 70
   128
 43
0.0
 10
353.1105736204
 20
-24.5815838987
 10
353.2272180778
 20
-24.6499836945
 10
354.1174178917
 20
-25.2472667755
 10
354.9460722288
 20
-25.9418383407
 10
355.7099751863
 20
-26.7310112278
 10
356.4061713722
 20
-27.6117322802
 10
357.0319673386
 20
-28.5805941591
 10
357.5849420026
 20
-29.6338485263
 10
358.0629560125
 20
-30.7674205451
 10
358.4641600251
 20
-31.9769246456
 10
358.7870018599
 20
-33.2576814915
 10
359.0302325046
 20
-34.6047360834
 10
359.1929109472
 20
-36.0128769286
 10
359.2744078162
 20
-37.4766562038
 10
359.2744078162
 20
-38.9904108314
 10
359.1929109472
 20
-40.5482843888
 10
359.0302325046
 20
-42.1442497658
 10
358.7870018599
 20
-43.7721324824
 10
358.4641600251
 20
-45.4256345767
 10
358.0629560125
 20
-47.0983589703
 10
357.5849420026
 20
-48.7838342174
 10
357.0319673386
 20
-50.4755395417
 10
356.4061713722
 20
-52.1669300641
 10
355.7099751863
 20
-53.851462123
 10
354.9460722288
 20
-55.5226185913
 10
354.1174178917
 20
-57.1739340893
 10
353.2272180778
 20
-58.799019998
 10
352.2789167972
 20
-60.3915891758
 10
351.2761828433
 20
-61.9454802819
 10
350.2228955989
 20
-63.4546816135
 10
349.1231300279
 20
-64.9133543638
 10
347.9811409096
 20
-66.3158552113
 10
346.8013463779
 20
-67.6567581528
 10
345.5883108288
 20
-68.9308754952
 10
344.3467272611
 20
-70.1332779261
 10
343.0813991205
 20
-71.259313584
 10
341.7972217157
 20
-72.3046260557
 10
340.4991632797
 20
-73.2651712303
 10
339.1922457483
 20
-74.1372329452
 10
337.8815253316
 20
-74.917437363
 10
336.5720729522
 20
-75.6027660244
 10
335.2689546271
 20
-76.1905675259
 10
333.9772118679
 20
-76.6785677777
 10
332.7018421763
 20
-77.0648788016
 10
331.4477797099
 20
-77.3480060354
 10
330.2198761928
 20
-77.5268541147
 10
329.0228821452
 20
-77.6007311111
 10
327.8614285045
 20
-77.5693512089
 10
327.6195892605
 20
-77.5491232216
  0
LINE
  5
13B
330
1F
100
AcDbEntity
  8
0
  6
Continuous
 62
     7
370
    25
100
AcDbLine
 10
293.3080041019
 20
-70.8353867889
 30
0.0
 11
301.7932854762
 21
-75.7338354598
 31
0.0
  0
LINE
  5
13C
330
1F
100
AcDbEntity
  8
0
  6
Continuous
 62
     7
370
    25
100
AcDbLine
 10
301.7932854762
 20
-75.7338354598
 30
0.0
 11
327.2491295989
 21
-78.0099715187
 31
0.0
  0
LWPOLYLINE
  5
13D
330
1F
100
AcDbEntity
  8
0
  6
Continuous
 62
     7
370
    25
100
AcDbPolyline
 90
       51
 70
   128
 43
0.0
 10
353.800899333
 20
-25.0188567677
 10
354.6414316402
 20
-25.4663918063
 10
355.5316314541
 20
-26.0636748873
 10
356.3602857911
 20
-26.7582464525
 10
357.1241887487
 20
-27.5474193396
 10
357.8203849345
 20
-28.428140392
 10
358.446180901
 20
-29.3970022709
 10
358.9991555649
 20
-30.4502566381
 10
359.4771695749
 20
-31.5838286569
 10
359.8783735874
 20
-32.7933327575
 10
360.2012154223
 20
-34.0740896034
 10
360.444446067
 20
-35.4211441952
 10
360.6071245095
 20
-36.8292850404
 10
360.6886213786
 20
-38.2930643156
 10
360.6886213786
 20
-39.8068189432
 10
360.6071245095
 20
-41.3646925006
 10
360.444446067
 20
-42.9606578776
 10
360.2012154223
 20
-44.5885405943
 10
359.8783735874
 20
-46.2420426885
 10
359.4771695749
 20
-47.9147670821
 10
358.9991555649
 20
-49.6002423292
 10
358.446180901
 20
-51.2919476535
 10
357.8203849345
 20
-52.9833381759
 10
357.1241887487
 20
-54.6678702348
 10
356.3602857911
 20
-56.3390267032
 10
355.5316314541
 20
-57.9903422011
 10
354.6414316402
 20
-59.6154281098
 10
353.6931303596
 20
-61.2079972876
 10
352.6903964056
 20
-62.7618883937
 10
351.6371091613
 20
-64.2710897253
 10
350.5373435903
 20
-65.7297624756
 10
349.3953544719
 20
-67.1322633232
 10
348.2155599403
 20
-68.4731662646
 10
347.0025243912
 20
-69.747283607
 10
345.7609408235
 20
-70.9496860379
 10
344.4956126829
 20
-72.0757216958
 10
343.2114352781
 20
-73.1210341675
 10
341.9133768421
 20
-74.0815793421
 10
340.6064593107
 20
-74.953641057
 10
339.295738894
 20
-75.7338454748
 10
337.9862865146
 20
-76.4191741362
 10
336.6831681895
 20
-77.0069756377
 10
335.3914254302
 20
-77.4949758895
 10
334.1160557386
 20
-77.8812869135
 10
332.8619932723
 20
-78.1644141472
 10
331.6340897552
 20
-78.3432622265
 10
330.4370957076
 20
-78.4171392229
 10
329.2756420669
 20
-78.3857593207
 10
328.1542222716
 20
-78.2492439225
 10
327.077174877
 20
-78.00812118
 10
327.0069438629
 20
-77.9883164644
  0
LWPOLYLINE
  5
13E
330
1F
100
AcDbEntity
  8
0
  6
Continuous
 62
     7
370
    25
100
AcDbPolyline
 90
       53
 70
   128
 43
0.0
 10
355.2151128954
 20
-25.8352648795
 10
356.0556452026
 20
-26.2827999181
 10
356.9458450165
 20
-26.8800829991
 10
357.7744993535
 20
-27.5746545644
 10
358.538402311
 20
-28.3638274515
 10
359.2345984969
 20
-29.2445485038
 10
359.8603944633
 20
-30.2134103828
 10
360.4133691273
 20
-31.2666647499
 10
360.8913831372
 20
-32.4002367687
 10
361.2925871498
 20
-33.6097408693
 10
361.6154289846
 20
-34.8904977152
 10
361.8586596294
 20
-36.237552307
 10
362.0213380719
 20
-37.6456931522
 10
362.102834941
 20
-39.1094724275
 10
362.102834941
 20
-40.6232270551
 10
362.0213380719
 20
-42.1811006124
 10
361.8586596294
 20
-43.7770659894
 10
361.6154289846
 20
-45.4049487061
 10
361.2925871498
 20
-47.0584508004
 10
360.8913831372
 20
-48.7311751939
 10
360.4133691273
 20
-50.416650441
 10
359.8603944633
 20
-52.1083557654
 10
359.2345984969
 20
-53.7997462877
 10
358.538402311
 20
-55.4842783467
 10
357.7744993535
 20
-57.155434815
 10
356.9458450165
 20
-58.8067503129
 10
356.0556452026
 20
-60.4318362216
 10
355.1073439219
 20
-62.0244053994
 10
354.104609968
 20
-63.5782965055
 10
353.0513227237
 20
-65.0874978371
 10
351.9515571527
 20
-66.5461705874
 10
350.8095680343
 20
-67.948671435
 10
349.6297735027
 20
-69.2895743765
 10
348.4167379535
 20
-70.5636917189
 10
347.1751543859
 20
-71.7660941497
 10
345.9098262453
 20
-72.8921298076
 10
344.6256488405
 20
-73.9374422793
 10
343.3275904044
 20
-74.897987454
 10
342.0206728731
 20
-75.7700491689
 10
340.7099524563
 20
-76.5502535867
 10
339.400500077
 20
-77.235582248
 10
338.0973817519
 20
-77.8233837495
 10
336.8056389926
 20
-78.3113840013
 10
335.530269301
 20
-78.6976950253
 10
334.2762068347
 20
-78.980822259
 10
333.0483033176
 20
-79.1596703384
 10
331.85130927
 20
-79.2335473348
 10
330.6898556293
 20
-79.2021674325
 10
329.568435834
 20
-79.0656520343
 10
328.4913884394
 20
-78.8245292918
 10
327.4628803327
 20
-78.479732062
 10
326.4868906119
 20
-78.0325942983
 10
326.2852420964
 20
-77.9237854511
  0
LWPOLYLINE
  5
13F
330
1F
100
AcDbEntity
  8
0
  6
Continuous
 62
     7
370
    25
100
AcDbPolyline
 90
       54
 70
   128
 43
0.0
 10
356.6293264577
 20
-26.6516729913
 10
357.4698587649
 20
-27.09920803
 10
358.3600585788
 20
-27.6964911109
 10
359.1887129159
 20
-28.3910626762
 10
359.9526158734
 20
-29.1802355633
 10
360.6488120593
 20
-30.0609566156
 10
361.2746080257
 20
-31.0298184946
 10
361.8275826897
 20
-32.0830728617
 10
362.3055966996
 20
-33.2166448805
 10
362.7068007122
 20
-34.4261489811
 10
363.029642547
 20
-35.706905827
 10
363.2728731918
 20
-37.0539604188
 10
363.4355516343
 20
-38.462101264
 10
363.5170485033
 20
-39.9258805393
 10
363.5170485033
 20
-41.4396351669
 10
363.4355516343
 20
-42.9975087242
 10
363.2728731918
 20
-44.5934741013
 10
363.029642547
 20
-46.2213568179
 10
362.7068007122
 20
-47.8748589122
 10
362.3055966996
 20
-49.5475833058
 10
361.8275826897
 20
-51.2330585528
 10
361.2746080257
 20
-52.9247638772
 10
360.6488120593
 20
-54.6161543995
 10
359.9526158734
 20
-56.3006864585
 10
359.1887129159
 20
-57.9718429268
 10
358.3600585788
 20
-59.6231584247
 10
357.4698587649
 20
-61.2482443334
 10
356.5215574843
 20
-62.8408135112
 10
355.5188235304
 20
-64.3947046173
 10
354.4655362861
 20
-65.9039059489
 10
353.365770715
 20
-67.3625786993
 10
352.2237815967
 20
-68.7650795468
 10
351.043987065
 20
-70.1059824883
 10
349.8309515159
 20
-71.3800998307
 10
348.5893679482
 20
-72.5825022615
 10
347.3240398076
 20
-73.7085379194
 10
346.0398624029
 20
-74.7538503911
 10
344.7418039668
 20
-75.7143955658
 10
343.4348864354
 20
-76.5864572807
 10
342.1241660187
 20
-77.3666616985
 10
340.8147136394
 20
-78.0519903599
 10
339.5115953142
 20
-78.6397918614
 10
338.219852555
 20
-79.1277921132
 10
336.9444828634
 20
-79.5141031371
 10
335.690420397
 20
-79.7972303709
 10
334.46251688
 20
-79.9760784502
 10
333.2655228324
 20
-80.0499554466
 10
332.1040691917
 20
-80.0185755443
 10
330.9826493964
 20
-79.8820601462
 10
329.9056020018
 20
-79.6409374036
 10
328.8770938951
 20
-79.2961401738
 10
327.9011041743
 20
-78.8490024101
 10
326.9814087541
 20
-78.3012540018
 10
326.8603107687
 20
-78.2187080517
  0
LWPOLYLINE
  5
140
330
1F
100
AcDbEntity
  8
0
  6
Continuous
 62
     1
370
    25
100
AcDbPolyline
 90
       67
 70
   128
 43
0.0
 10
309.0122380073
 20
2.8330077717
 10
309.9969355709
 20
2.8363347203
 10
311.2081484216
 20
2.7461834981
 10
312.3771561151
 20
2.5509440668
 10
313.4999288397
 20
2.2512894573
 10
314.5725961652
 20
1.8482526411
 10
315.5914603851
 20
1.3432229695
 10
316.5530092635
 20
0.7379413844
 10
317.453928142
 20
0.0344944169
 10
318.2911113668
 20
-0.7646930056
 10
319.0616729938
 20
-1.6568659185
 10
319.7629567374
 20
-2.638948817
 10
320.3925451273
 20
-3.7075562579
 10
320.9482678419
 20
-4.8590045298
 10
321.4282091899
 20
-6.0893243522
 10
321.830714714
 20
-7.3942745576
 10
322.1543968943
 20
-8.7693567125
 10
322.3981399313
 20
-10.2098306237
 10
322.5611035921
 20
-11.7107306793
 10
322.6427261074
 20
-13.2668829659
 10
322.6427261074
 20
-14.8729231041
 10
322.5611035921
 20
-16.5233147408
 10
322.3981399313
 20
-18.2123686343
 10
322.1543968943
 20
-19.9342622658
 10
321.830714714
 20
-21.6830599113
 10
321.4282091899
 20
-23.4527331029
 10
320.9482678419
 20
-25.2371814107
 10
320.3925451273
 20
-27.0302534716
 10
319.7629567374
 20
-28.8257681948
 10
319.0616729938
 20
-30.617536069
 10
318.2911113668
 20
-32.3993804993
 10
317.453928142
 20
-34.1651590986
 10
316.5530092635
 20
-35.9087848625
 10
315.5914603851
 20
-37.6242471516
 10
314.5725961652
 20
-39.3056324122
 10
313.4999288397
 20
-40.9471445608
 10
312.3771561151
 20
-42.543124965
 10
311.2081484216
 20
-44.0880719498
 10
309.9969355709
 20
-45.5766597629
 10
308.7476928646
 20
-47.0037569336
 10
307.4647267011
 20
-48.3644439625
 10
306.1524597305
 20
-49.6540302794
 10
304.815415609
 20
-50.8680704131
 10
303.4582034047
 20
-52.0023793158
 10
302.085501709
 20
-53.0530467897
 10
300.7020425093
 20
-54.0164509664
 10
299.3125948759
 20
-54.8892707921
 10
297.9219485226
 20
-55.6684974761
 10
296.5348972956
 20
-56.3514448625
 10
295.1562226477
 20
-56.9357586902
 10
293.7906771561
 20
-57.4194247084
 10
292.442968139
 20
-57.8007756202
 10
291.1177414285
 20
-58.07849683
 10
289.8195653557
 20
-58.2516309751
 10
288.5529150024
 20
-58.3195812265
 10
287.3221567748
 20
-58.2821133453
 10
286.1315333514
 20
-58.1393564913
 10
284.9851490578
 20
-57.8918027768
 10
283.8869557183
 20
-57.5403055708
 10
282.8407390327
 20
-57.086076557
 10
281.8501055267
 20
-56.5306815569
 10
280.9184701191
 20
-55.8760351321
 10
280.0490443504
 20
-55.1243939844
 10
279.2448253111
 20
-54.2783491767
 10
278.508585311
 20
-53.3408172005
 10
277.8428623217
 20
-52.3150299229
 10
277.5147979293
 20
-51.7280705583
  0
LWPOLYLINE
  5
141
330
1F
100
AcDbEntity
  8
0
  6
Continuous
 62
     1
370
    25
100
AcDbPolyline
 90
       50
 70
   128
 43
0.0
 10
318.8529446164
 20
-0.4826464595
 10
319.4049010417
 20
-1.0915824741
 10
320.1390745557
 20
-2.042240565
 10
320.8027975373
 20
-3.0805384484
 10
321.3938241582
 20
-4.2029628528
 10
321.9101545712
 20
-5.4057158495
 10
322.3500416778
 20
-6.684727703
 10
322.7119970391
 20
-8.035670642
 10
322.9947959129
 20
-9.4539735032
 10
323.1974813972
 20
-10.9348371988
 10
323.3193676686
 20
-12.4732509548
 10
323.3600423024
 20
-14.0640092659
 10
323.3193676686
 20
-15.7017295095
 10
323.1974813972
 20
-17.3808701589
 10
322.9947959129
 20
-19.0957495335
 10
322.7119970391
 20
-20.8405650244
 10
322.3500416778
 20
-22.6094127283
 10
321.9101545712
 20
-24.3963074244
 10
321.3938241582
 20
-26.1952028267
 10
320.8027975373
 20
-28.0000120426
 10
320.1390745557
 20
-29.8046281691
 10
319.4049010417
 20
-31.6029449564
 10
318.6027612061
 20
-33.3888774696
 10
317.7353692363
 20
-35.1563826786
 10
316.8056601121
 20
-36.8994799052
 10
315.8167796748
 20
-38.6122710602
 10
314.7720739829
 20
-40.2889606003
 10
313.6750779897
 20
-41.9238751391
 10
312.5295035824
 20
-43.5114826431
 10
311.3392270222
 20
-45.0464111512
 10
310.1082758282
 20
-46.5234669512
 10
308.8408151496
 20
-47.9376521537
 10
307.5411336721
 20
-49.2841816037
 10
306.2136291064
 20
-50.5584990718
 10
304.8627933078
 20
-51.7562926711
 10
303.493197077
 20
-52.873509447
 10
302.1094746941
 20
-53.9063690919
 10
300.7163082377
 20
-54.8513767354
 10
299.318411742
 20
-55.705334771
 10
297.9205152464
 20
-56.4653536748
 10
296.52734879
 20
-57.1288617836
 10
295.1436264071
 20
-57.693613996
 10
293.7740301763
 20
-58.1576993691
 10
292.4231943777
 20
-58.519547585
 10
291.095689812
 20
-58.7779342639
 10
289.7960083345
 20
-58.9319851071
 10
288.5285476559
 20
-58.9811788552
 10
287.2975964619
 20
-58.9253490522
 10
286.1073199017
 20
-58.7646846085
 10
285.3616572184
 20
-58.6053345716
  0
LINE
  5
142
330
1F
100
AcDbEntity
  8
0
  6
Continuous
 62
     7
370
    25
100
AcDbLine
 10
105.8323425481
 20
-16.3523912662
 30
0.0
 11
105.8323425481
 21
-43.8523912662
 31
0.0
  0
LINE
  5
143
330
1F
100
AcDbEntity
  8
0
  6
Continuous
 62
     7
370
    25
100
AcDbLine
 10
173.8323425481
 20
-43.8523912662
 30
0.0
 11
173.8323425481
 21
-16.3523912662
 31
0.0
  0
ARC
  5
144
330
1F
100
AcDbEntity
  8
0
  6
Continuous
 62
     7
370
    25
100
AcDbCircle
 10
106.3323425481
 20
-43.8523912662
 30
0.0
 40
0.5
100
AcDbArc
 50
180.0
 51
270.0
  0
ARC
  5
145
330
1F
100
AcDbEntity
  8
0
  6
Continuous
 62
     7
370
    25
100
AcDbCircle
 10
173.3323425481
 20
-43.8523912662
 30
0.0
 40
0.5
100
AcDbArc
 50
270.0
 51
0.0
  0
LINE
  5
146
330
1F
100
AcDbEntity
  8
0
  6
Continuous
 62
     7
370
    25
100
AcDbLine
 10
108.3323425481
 20
-44.3523912662
 30
0.0
 11
108.3323425481
 21
-106.8523912662
 31
0.0
  0
LINE
  5
147
330
1F
100
AcDbEntity
  8
0
  6
Continuous
 62
     7
370
    25
100
AcDbLine
 10
171.3323425481
 20
-106.8523912662
 30
0.0
 11
171.3323425481
 21
-44.3523912662
 31
0.0
  0
LINE
  5
148
330
1F
100
AcDbEntity
  8
0
  6
Continuous
 62
     7
370
    25
100
AcDbLine
 10
169.6373425481
 20
17.1476087338
 30
0.0
 11
167.9052917405
 21
18.1476087338
 31
0.0
  0
LINE
  5
149
330
1F
100
AcDbEntity
  8
0
  6
Continuous
 62
     7
370
    25
100
AcDbLine
 10
111.7593933556
 20
18.1476087338
 30
0.0
 11
110.0273425481
 21
17.1476087338
 31
0.0
  0
LINE
  5
14A
330
1F
100
AcDbEntity
  8
0
  6
Continuous
 62
     7
370
    25
100
AcDbLine
 10
110.0273425481
 20
17.1476087338
 30
0.0
 11
111.7593933556
 21
16.1476087338
 31
0.0
  0
LINE
  5
14B
330
1F
100
AcDbEntity
  8
0
  6
Continuous
 62
     7
370
    25
100
AcDbLine
 10
167.9052917405
 20
16.1476087338
 30
0.0
 11
169.6373425481
 21
17.1476087338
 31
0.0
  0
LINE
  5
14C
330
1F
100
AcDbEntity
  8
0
  6
Continuous
 62
     7
370
    25
100
AcDbLine
 10
169.6373425481
 20
15.1476087338
 30
0.0
 11
167.9052917405
 21
16.1476087338
 31
0.0
  0
LINE
  5
14D
330
1F
100
AcDbEntity
  8
0
  6
Continuous
 62
     7
370
    25
100
AcDbLine
 10
111.7593933556
 20
16.1476087338
 30
0.0
 11
110.0273425481
 21
15.1476087338
 31
0.0
  0
LINE
  5
14E
330
1F
100
AcDbEntity
  8
0
  6
Continuous
 62
     7
370
    25
100
AcDbLine
 10
110.0273425481
 20
15.1476087338
 30
0.0
 11
111.7593933556
 21
14.1476087338
 31
0.0
  0
LINE
  5
14F
330
1F
100
AcDbEntity
  8
0
  6
Continuous
 62
     7
370
    25
100
AcDbLine
 10
167.9052917405
 20
14.1476087338
 30
0.0
 11
169.6373425481
 21
15.1476087338
 31
0.0
  0
LINE
  5
150
330
1F
100
AcDbEntity
  8
0
  6
Continuous
 62
     7
370
    25
100
AcDbLine
 10
169.6373425481
 20
13.1476087338
 30
0.0
 11
167.9052917405
 21
14.1476087338
 31
0.0
  0
LINE
  5
151
330
1F
100
AcDbEntity
  8
0
  6
Continuous
 62
     7
370
    25
100
AcDbLine
 10
111.7593933556
 20
14.1476087338
 30
0.0
 11
110.0273425481
 21
13.1476087338
 31
0.0
  0
LINE
  5
152
330
1F
100
AcDbEntity
  8
0
  6
Continuous
 62
     7
370
    25
100
AcDbLine
 10
110.0273425481
 20
13.1476087338
 30
0.0
 11
111.7593933556
 21
12.1476087338
 31
0.0
  0
LINE
  5
153
330
1F
100
AcDbEntity
  8
0
  6
Continuous
 62
     7
370
    25
100
AcDbLine
 10
167.9052917405
 20
12.1476087338
 30
0.0
 11
169.6373425481
 21
13.1476087338
 31
0.0
  0
LINE
  5
154
330
1F
100
AcDbEntity
  8
0
  6
Continuous
 62
     7
370
    25
100
AcDbLine
 10
169.6373425481
 20
11.1476087338
 30
0.0
 11
167.9052917405
 21
12.1476087338
 31
0.0
  0
LINE
  5
155
330
1F
100
AcDbEntity
  8
0
  6
Continuous
 62
     7
370
    25
100
AcDbLine
 10
111.7593933556
 20
12.1476087338
 30
0.0
 11
110.0273425481
 21
11.1476087338
 31
0.0
  0
LINE
  5
156
330
1F
100
AcDbEntity
  8
0
  6
Continuous
 62
     7
370
    25
100
AcDbLine
 10
110.0273425481
 20
11.1476087338
 30
0.0
 11
110.0273425481
 21
-4.3523912662
 31
0.0
  0
LINE
  5
157
330
1F
100
AcDbEntity
  8
0
  6
Continuous
 62
     7
370
    25
100
AcDbLine
 10
169.6373425481
 20
-4.3523912662
 30
0.0
 11
169.6373425481
 21
11.1476087338
 31
0.0
  0
LINE
  5
158
330
1F
100
AcDbEntity
  8
0
  6
Continuous
 62
     7
370
    25
100
AcDbLine
 10
139.8323425481
 20
-16.3523912662
 30
0.0
 11
139.8323425481
 21
-4.3523912662
 31
0.0
  0
LINE
  5
159
330
1F
100
AcDbEntity
  8
0
  6
Continuous
 62
     7
370
    25
100
AcDbLine
 10
139.8323425481
 20
-16.3523912662
 30
0.0
 11
103.8323425481
 21
-16.3523912662
 31
0.0
  0
LINE
  5
15A
330
1F
100
AcDbEntity
  8
0
  6
Continuous
 62
     7
370
    25
100
AcDbLine
 10
103.8323425481
 20
-16.3523912662
 30
0.0
 11
103.8323425481
 21
-4.3523912662
 31
0.0
  0
LINE
  5
15B
330
1F
100
AcDbEntity
  8
0
  6
Continuous
 62
     7
370
    25
100
AcDbLine
 10
139.8323425481
 20
-4.3523912662
 30
0.0
 11
103.8323425481
 21
-4.3523912662
 31
0.0
  0
LINE
  5
15C
330
1F
100
AcDbEntity
  8
0
  6
Continuous
 62
     7
370
    25
100
AcDbLine
 10
175.8323425481
 20
-16.3523912662
 30
0.0
 11
175.8323425481
 21
-4.3523912662
 31
0.0
  0
LINE
  5
15D
330
1F
100
AcDbEntity
  8
0
  6
Continuous
 62
     7
370
    25
100
AcDbLine
 10
175.8323425481
 20
-16.3523912662
 30
0.0
 11
139.8323425481
 21
-16.3523912662
 31
0.0
  0
LINE
  5
15E
330
1F
100
AcDbEntity
  8
0
  6
Continuous
 62
     7
370
    25
100
AcDbLine
 10
175.8323425481
 20
-4.3523912662
 30
0.0
 11
139.8323425481
 21
-4.3523912662
 31
0.0
  0
LINE
  5
15F
330
1F
100
AcDbEntity
  8
0
  6
Continuous
 62
     7
370
    25
100
AcDbLine
 10
106.3323425481
 20
-44.3523912662
 30
0.0
 11
173.3323425478
 21
-44.3523912662
 31
0.0
  0
LINE
  5
160
330
1F
100
AcDbEntity
  8
0
  6
Continuous
 62
     7
370
    25
100
AcDbLine
 10
108.3323425481
 20
-106.8523912662
 30
0.0
 11
171.3323425481
 21
-106.8523912662
 31
0.0
  0
LINE
  5
161
330
1F
100
AcDbEntity
  8
0
  6
Continuous
 62
     7
370
    25
100
AcDbLine
 10
110.0273425481
 20
17.1476087338
 30
0.0
 11
169.6373425481
 21
17.1476087338
 31
0.0
  0
LINE
  5
162
330
1F
100
AcDbEntity
  8
0
  6
Continuous
 62
     7
370
    25
100
AcDbLine
 10
111.7593933556
 20
18.1476087338
 30
0.0
 11
167.9052917405
 21
18.1476087338
 31
0.0
  0
LINE
  5
163
330
1F
100
AcDbEntity
  8
0
  6
Continuous
 62
     7
370
    25
100
AcDbLine
 10
111.7593933556
 20
16.1476087338
 30
0.0
 11
167.9052917405
 21
16.1476087338
 31
0.0
  0
LINE
  5
164
330
1F
100
AcDbEntity
  8
0
  6
Continuous
 62
     7
370
    25
100
AcDbLine
 10
110.0273425481
 20
15.1476087338
 30
0.0
 11
169.6373425481
 21
15.1476087338
 31
0.0
  0
LINE
  5
165
330
1F
100
AcDbEntity
  8
0
  6
Continuous
 62
     7
370
    25
100
AcDbLine
 10
111.7593933556
 20
14.1476087338
 30
0.0
 11
167.9052917405
 21
14.1476087338
 31
0.0
  0
LINE
  5
166
330
1F
100
AcDbEntity
  8
0
  6
Continuous
 62
     7
370
    25
100
AcDbLine
 10
110.0273425481
 20
13.1476087338
 30
0.0
 11
169.6373425481
 21
13.1476087338
 31
0.0
  0
LINE
  5
167
330
1F
100
AcDbEntity
  8
0
  6
Continuous
 62
     7
370
    25
100
AcDbLine
 10
111.7593933556
 20
12.1476087338
 30
0.0
 11
167.9052917405
 21
12.1476087338
 31
0.0
  0
LINE
  5
168
330
1F
100
AcDbEntity
  8
0
  6
Continuous
 62
     7
370
    25
100
AcDbLine
 10
110.0273425481
 20
11.1476087338
 30
0.0
 11
169.6373425481
 21
11.1476087338
 31
0.0
  0
LINE
  5
169
330
1F
100
AcDbEntity
  8
0
  6
Continuous
 62
     1
370
    25
100
AcDbLine
 10
105.8323425481
 20
-43.8523912662
 30
0.0
 11
173.8323425481
 21
-43.8523912662
 31
0.0
  0
ENDSEC
  0
SECTION
  2
OBJECTS
  0
DICTIONARY
  5
C
330
0
100
AcDbDictionary
281
     1
  3
ACAD_GROUP
350
D
  3
ACAD_LAYOUT
350
1A
  3
ACAD_MLINESTYLE
350
17
  3
ACAD_PLOTSETTINGS
350
19
  3
ACAD_PLOTSTYLENAME
350
E
  3
ACAD_SCALELIST
350
47
  3
DWGPROPS
350
16A
  0
DICTIONARY
  5
D
102
{ACAD_REACTORS
330
C
102
}
330
C
100
AcDbDictionary
281
     1
  0
DICTIONARY
  5
1A
102
{ACAD_REACTORS
330
C
102
}
330
C
100
AcDbDictionary
281
     1
  3
Layout1
350
1E
  3
Layout2
350
26
  3
Model
350
22
  0
DICTIONARY
  5
17
102
{ACAD_REACTORS
330
C
102
}
330
C
100
AcDbDictionary
281
     1
  3
Standard
350
18
  0
DICTIONARY
  5
19
102
{ACAD_REACTORS
330
C
102
}
330
C
100
AcDbDictionary
281
     1
  0
ACDBDICTIONARYWDFLT
  5
E
102
{ACAD_REACTORS
330
C
102
}
330
C
100
AcDbDictionary
281
     1
  3
Normal
350
F
100
AcDbDictionaryWithDefault
340
F
  0
DICTIONARY
  5
47
102
{ACAD_REACTORS
330
C
102
}
330
C
100
AcDbDictionary
281
     1
  3
A0
350
48
  3
A1
350
49
  3
A2
350
4A
  3
A3
350
4B
  3
A4
350
4C
  3
A5
350
4D
  3
A6
350
4E
  3
A7
350
4F
  3
A8
350
50
  3
A9
350
51
  3
B0
350
52
  3
B1
350
53
  3
B2
350
54
  3
B3
350
55
  3
B4
350
56
  3
B5
350
57
  3
B6
350
58
  3
B7
350
59
  3
B8
350
5A
  3
B9
350
5B
  3
C0
350
5C
  3
C1
350
5D
  3
C2
350
5E
  3
C3
350
5F
  3
C4
350
60
  3
C5
350
61
  3
C6
350
62
  3
C7
350
63
  3
C8
350
64
  3
C9
350
65
  3
D0
350
66
  3
D1
350
67
  3
D2
350
68
  0
XRECORD
  5
16A
102
{ACAD_REACTORS
330
C
102
}
330
C
100
AcDbXrecord
280
     1
  1
DWGPROPS COOKIE
  2

  3

  4

  6

  7

  8
b.kav
  9

300
=
301
=
302
=
303
=
304
=
305
=
306
=
307
=
308
=
309
=
 40
0.0
 41
2459948.454410116
 42
2459948.454410336
  1

 90
        0
  0
LAYOUT
  5
1E
102
{ACAD_REACTORS
330
1A
102
}
330
1A
100
AcDbPlotSettings
  1

  2
none_device
  4

  6

 40
0.0
 41
0.0
 42
0.0
 43
0.0
 44
0.0
 45
0.0
 46
0.0
 47
0.0
 48
0.0
 49
0.0
140
0.0
141
0.0
142
1.0
143
1.0
 70
   688
 72
     1
 73
     0
 74
     5
  7

 75
    16
147
1.0
148
0.0
149
0.0
100
AcDbLayout
  1
Layout1
 70
     1
 71
     1
 10
0.0
 20
0.0
 11
420.0
 21
297.0
 12
0.0
 22
0.0
 32
0.0
 14
1.0000000000E+20
 24
1.0000000000E+20
 34
1.0000000000E+20
 15
-1.0000000000E+20
 25
-1.0000000000E+20
 35
-1.0000000000E+20
146
0.0
 13
0.0
 23
0.0
 33
0.0
 16
1.0
 26
0.0
 36
0.0
 17
0.0
 27
1.0
 37
0.0
 76
     0
330
1B
  0
LAYOUT
  5
26
102
{ACAD_REACTORS
330
1A
102
}
330
1A
100
AcDbPlotSettings
  1

  2
none_device
  4

  6

 40
0.0
 41
0.0
 42
0.0
 43
0.0
 44
0.0
 45
0.0
 46
0.0
 47
0.0
 48
0.0
 49
0.0
140
0.0
141
0.0
142
1.0
143
1.0
 70
   688
 72
     1
 73
     0
 74
     5
  7

 75
    16
147
1.0
148
0.0
149
0.0
100
AcDbLayout
  1
Layout2
 70
     1
 71
     2
 10
0.0
 20
0.0
 11
0.0
 21
0.0
 12
0.0
 22
0.0
 32
0.0
 14
0.0
 24
0.0
 34
0.0
 15
0.0
 25
0.0
 35
0.0
146
0.0
 13
0.0
 23
0.0
 33
0.0
 16
1.0
 26
0.0
 36
0.0
 17
0.0
 27
1.0
 37
0.0
 76
     0
330
23
  0
LAYOUT
  5
22
102
{ACAD_REACTORS
330
1A
102
}
330
1A
100
AcDbPlotSettings
  1

  2
none_device
  4
Letter_(8.50_x_11.00_Inches)
  6

 40
6.35
 41
6.35
 42
6.35000508
 43
6.35000508
 44
215.9
 45
279.4
 46
0.0
 47
0.0
 48
0.0
 49
0.0
140
0.0
141
0.0
142
1.0
143
1.0
 70
  1712
 72
     1
 73
     0
 74
     0
  7

 75
     0
147
1.0
148
0.0
149
0.0
100
AcDbLayout
  1
Model
 70
     1
 71
     0
 10
0.0
 20
0.0
 11
279.4
 21
215.9
 12
0.0
 22
0.0
 32
0.0
 14
0.0
 24
0.0
 34
0.0
 15
279.4
 25
215.9
 35
0.0
146
0.0
 13
0.0
 23
0.0
 33
0.0
 16
1.0
 26
0.0
 36
0.0
 17
0.0
 27
1.0
 37
0.0
 76
     0
330
1F
331
29
  0
MLINESTYLE
  5
18
102
{ACAD_REACTORS
330
17
102
}
330
17
100
AcDbMlineStyle
  2
Standard
 70
     0
  3

 62
   256
 51
90.0
 52
90.0
 71
     2
 49
0.5
 62
   256
  6
BYLAYER
 49
-0.5
 62
   256
  6
BYLAYER
  0
ACDBPLACEHOLDER
  5
F
102
{ACAD_REACTORS
330
E
102
}
330
E
  0
SCALE
  5
48
102
{ACAD_REACTORS
330
47
102
}
330
47
100
AcDbScale
 70
     0
300
1:1
140
1.0
141
1.0
290
     1
  0
SCALE
  5
49
102
{ACAD_REACTORS
330
47
102
}
330
47
100
AcDbScale
 70
     0
300
1:2
140
1.0
141
2.0
290
     0
  0
SCALE
  5
4A
102
{ACAD_REACTORS
330
47
102
}
330
47
100
AcDbScale
 70
     0
300
1:4
140
1.0
141
4.0
290
     0
  0
SCALE
  5
4B
102
{ACAD_REACTORS
330
47
102
}
330
47
100
AcDbScale
 70
     0
300
1:5
140
1.0
141
5.0
290
     0
  0
SCALE
  5
4C
102
{ACAD_REACTORS
330
47
102
}
330
47
100
AcDbScale
 70
     0
300
1:8
140
1.0
141
8.0
290
     0
  0
SCALE
  5
4D
102
{ACAD_REACTORS
330
47
102
}
330
47
100
AcDbScale
 70
     0
300
1:10
140
1.0
141
10.0
290
     0
  0
SCALE
  5
4E
102
{ACAD_REACTORS
330
47
102
}
330
47
100
AcDbScale
 70
     0
300
1:16
140
1.0
141
16.0
290
     0
  0
SCALE
  5
4F
102
{ACAD_REACTORS
330
47
102
}
330
47
100
AcDbScale
 70
     0
300
1:20
140
1.0
141
20.0
290
     0
  0
SCALE
  5
50
102
{ACAD_REACTORS
330
47
102
}
330
47
100
AcDbScale
 70
     0
300
1:30
140
1.0
141
30.0
290
     0
  0
SCALE
  5
51
102
{ACAD_REACTORS
330
47
102
}
330
47
100
AcDbScale
 70
     0
300
1:40
140
1.0
141
40.0
290
     0
  0
SCALE
  5
52
102
{ACAD_REACTORS
330
47
102
}
330
47
100
AcDbScale
 70
     0
300
1:50
140
1.0
141
50.0
290
     0
  0
SCALE
  5
53
102
{ACAD_REACTORS
330
47
102
}
330
47
100
AcDbScale
 70
     0
300
1:100
140
1.0
141
100.0
290
     0
  0
SCALE
  5
54
102
{ACAD_REACTORS
330
47
102
}
330
47
100
AcDbScale
 70
     0
300
2:1
140
2.0
141
1.0
290
     0
  0
SCALE
  5
55
102
{ACAD_REACTORS
330
47
102
}
330
47
100
AcDbScale
 70
     0
300
4:1
140
4.0
141
1.0
290
     0
  0
SCALE
  5
56
102
{ACAD_REACTORS
330
47
102
}
330
47
100
AcDbScale
 70
     0
300
8:1
140
8.0
141
1.0
290
     0
  0
SCALE
  5
57
102
{ACAD_REACTORS
330
47
102
}
330
47
100
AcDbScale
 70
     0
300
10:1
140
10.0
141
1.0
290
     0
  0
SCALE
  5
58
102
{ACAD_REACTORS
330
47
102
}
330
47
100
AcDbScale
 70
     0
300
100:1
140
100.0
141
1.0
290
     0
  0
SCALE
  5
59
102
{ACAD_REACTORS
330
47
102
}
330
47
100
AcDbScale
 70
     0
300
1/128" = 1'-0"
140
0.0078125
141
12.0
290
     0
  0
SCALE
  5
5A
102
{ACAD_REACTORS
330
47
102
}
330
47
100
AcDbScale
 70
     0
300
1/64" = 1'-0"
140
0.015625
141
12.0
290
     0
  0
SCALE
  5
5B
102
{ACAD_REACTORS
330
47
102
}
330
47
100
AcDbScale
 70
     0
300
1/32" = 1'-0"
140
0.03125
141
12.0
290
     0
  0
SCALE
  5
5C
102
{ACAD_REACTORS
330
47
102
}
330
47
100
AcDbScale
 70
     0
300
1/16" = 1'-0"
140
0.0625
141
12.0
290
     0
  0
SCALE
  5
5D
102
{ACAD_REACTORS
330
47
102
}
330
47
100
AcDbScale
 70
     0
300
3/32" = 1'-0"
140
0.09375
141
12.0
290
     0
  0
SCALE
  5
5E
102
{ACAD_REACTORS
330
47
102
}
330
47
100
AcDbScale
 70
     0
300
1/8" = 1'-0"
140
0.125
141
12.0
290
     0
  0
SCALE
  5
5F
102
{ACAD_REACTORS
330
47
102
}
330
47
100
AcDbScale
 70
     0
300
3/16" = 1'-0"
140
0.1875
141
12.0
290
     0
  0
SCALE
  5
60
102
{ACAD_REACTORS
330
47
102
}
330
47
100
AcDbScale
 70
     0
300
1/4" = 1'-0"
140
0.25
141
12.0
290
     0
  0
SCALE
  5
61
102
{ACAD_REACTORS
330
47
102
}
330
47
100
AcDbScale
 70
     0
300
3/8" = 1'-0"
140
0.375
141
12.0
290
     0
  0
SCALE
  5
62
102
{ACAD_REACTORS
330
47
102
}
330
47
100
AcDbScale
 70
     0
300
1/2" = 1'-0"
140
0.5
141
12.0
290
     0
  0
SCALE
  5
63
102
{ACAD_REACTORS
330
47
102
}
330
47
100
AcDbScale
 70
     0
300
3/4" = 1'-0"
140
0.75
141
12.0
290
     0
  0
SCALE
  5
64
102
{ACAD_REACTORS
330
47
102
}
330
47
100
AcDbScale
 70
     0
300
1" = 1'-0"
140
1.0
141
12.0
290
     0
  0
SCALE
  5
65
102
{ACAD_REACTORS
330
47
102
}
330
47
100
AcDbScale
 70
     0
300
1-1/2" = 1'-0"
140
1.5
141
12.0
290
     0
  0
SCALE
  5
66
102
{ACAD_REACTORS
330
47
102
}
330
47
100
AcDbScale
 70
     0
300
3" = 1'-0"
140
3.0
141
12.0
290
     0
  0
SCALE
  5
67
102
{ACAD_REACTORS
330
47
102
}
330
47
100
AcDbScale
 70
     0
300
6" = 1'-0"
140
6.0
141
12.0
290
     0
  0
SCALE
  5
68
102
{ACAD_REACTORS
330
47
102
}
330
47
100
AcDbScale
 70
     0
300
1'-0" = 1'-0"
140
12.0
141
12.0
290
     0
  0
ENDSEC
  0
EOF
